Marcos barrientos

Solo disponible en BuenasTareas
  • Páginas : 5 (1082 palabras )
  • Descarga(s) : 0
  • Publicado : 7 de noviembre de 2011
Leer documento completo
Vista previa del texto
Marco Barrientos
Manda Lluvia(TAB)
Intro Bajo y guitarra: D-G-Bm-A

Guitarra puente…. Delay + overdrive

E------------------------------------
B-----7---~~--15--~~--12-------
G------------------------------------
D---------------------------------

E------------------------------------
B----10-- ~-7--~-10--~-8-------------
G------------------------------------D------------------------------------

E-----------------------------
B-----7---~~--15--~~--12------
G-----------------------------
D-----------------------------

E------------------------------------------------
B----10-- ~-7--~-10--~-8---~--3-------3-~-7------
G------------------------------------------------

Solo

E----------------------------------------------------------B----10s15-15-15--14-14------------------------------------
G-----------------------------16-16-14-14------------------ x2
D-----------------------16-16------------------------------
A------------------------------------------17-17-17-17-----
E----------------------------------------------------------

E---------------------------------------------------------B--15-17-17-17-17-17-17-17--------------------------------
G---------------------------------- ----------------------- x2
D----------------------------------------------------------
A----------------------------------------------------------
E----------------------------------------------------------

E--------------------------------------------------------
B-----15-15-15-14-14-14--15-15-15-14-14-14--15-15-14-15--G--------------------------------------------------------
D--------------------------------------------------------
A--------------------------------------------------------
E--------------------------------------------------------

E--17-17-17-----------14-14-14---------------------
B-----------15-15-15-----------15-15-15------------
G----------------------------------------14-14-14-- x2D--------------------------------------------------
A--------------------------------------------------
E--------------------------------------------------

E---14----14--14----14----14----14----14----14-----
B------17--------17----17----17----17----17--------
G---------------------------------- ---------------
D--------------------------------------------------E--------------------------------------------------
B----15-14----12-----10----------------------------
G--------------------------s9-----s12--------------
D--------------------------------------------------
Marco Barrientos
Manda el fuego(TAB)
Intro
Fmaj7 Gsus4(X3) Para entrar al verso--Fmaj7 (X4)

|----------Fmaj7----------||-------Gsus4----------|
E---------12-------12-------------10-------10------B------13-------13----13-------13-------13----13---
G---10-------10----------10-12-------12----------12 Se repite intro(X7)

|-------Fmaj7--------|
E---------10-------10
B------13-------13---
G---12-------12------ Para entrar al Verso 1 (X5)

Arreglo antes de Verso 2
|-Fmaj7-||-Gsus4-|
E--------------
B-------5-----3
G-----5-----5-- Para entrar al Verso 2 (X2)
D---3-----5----

GF C G F C
Que quemes toda iniquidad que entren gloria luz verdad
Am G C F/A G/B C
Que haya en mi revolución manda el fuego hoy
Coro

G C G C
Manda el fuego, manda el fuego
G Am F/A G/B C
Manda el fuego, manda el fuego hoy

•Intro ( X 6 ) Para entrar al verso ( X 4 )

Verso 3Pre-coro
Coro

Delirious
Rain Down(TAB)

Intro/Coro
----------------------------------------
----------------------------------------
-9-11-11-9-11-11-9-11-11-9-11-11-12-12--
-0-0--0--0-0--0--0-0--0--0-0--0--0--0---
----------------------------------------
----------------------------------------

Verso:

-----2-----2-----|0-----0-----0--|
---3-----3-----3-|----3-----3----|...
tracking img