Megadeth

Solo disponible en BuenasTareas
  • Páginas : 10 (2309 palabras )
  • Descarga(s) : 0
  • Publicado : 23 de agosto de 2012
Leer documento completo
Vista previa del texto
PEACE SELLS-MEGADETH
Bass intro arranged for guitar:
e|----------------------------------------|
B|----------------------------------------|
G|----------------------------------------|
D|--------5--------7-8---------5----------|
A|-7--5-7------7-5------7--5-7------7-----|
E|-----------0--------------------0---5-6-|

Intro (Right channel guitar plays powerchord, left just plays
rootnote, so I put the B note in () )
e|-------------|
B|-------------|
G|-------------|
D|----(9)\-----|
A|-5-6-7-\--2--|
E|----------0--|

e|-----------------------------------------|
B|-----------------------------------------|
G|-----------------------------------------|
D|-7------7-7-7-7-7-7-7-7-7-7-7-7-7-7------|
A|-5------5-5-5-5-5-5-5-5-5-5-5-5-5-5-8-7--|E|------------------------------------6-5--|
* * * * * * * * * * * * * *

Intro solo (Mustaine)
e|-[17]18r17--[17]18r17--[17]18r17--|
B|----------------------------------|
G|----------------------------------|
D|----------------------------------|
A|----------------------------------|
E|----------------------------------|

e|-12h16p12----11-11h15p11----10-10h14p10----9-9h13p9----8-|B|----------15-------------14-------------13----------12---|
G|---------------------------------------------------------|
D|---------------------------------------------------------|
A|---------------------------------------------------------|
E|---------------------------------------------------------|

e|-8h12p8----7-7h11p7----6-6h10p6---5-5h9p5---5----|
B|--------11----------10----------9---------8---5~-|G|-------------------------------------------------|
D|-------------------------------------------------|
A|-------------------------------------------------|
E|-------------------------------------------------|




Riff 1
e|-------------------------------------|
B|-------------------------------------|
G|-------------------------------------|
D|-------------------------------------|A|----------------6-----------------5--|
E|-0-0-0-0-0-0-0--4--0-0-0-0-0-0-0--3--|
* * * * * * * * * * * * * *
"What do ya mean I don't believe in God?..."
e|-------------------------------------|
B|-------------------------------------|
G|-------------------------------------|
D|-------------------------------------|
A|----------------6---------------8--7-|E|-0-0-0-0-0-0-0--4--0-0-0-0-0-0--6--5-|
* * * * * * * * * * * * *
"Talk to him everyday..."


Riff 2
e|-------------------------------------|
B|-------------------------------------|
G|----------7------------------7-------|
D|-9-9-7-9--5--7-9----9-9-7-9--5-------|
A|-7-7-5-7-----5-7----7-7-5-7-----4-5--|
E|--------------------------------2-3--|
"If there's a new way..."e|----------------------------|
B|----------------------------|
G|----------------------------|
D|----------7--------------5--|
A|-5-5-4-5--5--4-5---5-4-3-3--|
E|-3-3-2-3-----2-3---3-2-1----|
* * *
"But it better work this time..."


Play Riff 1 Solo Rhythm

Solo (Poland)
e|----------------------------------------------------------|B|----------------------------------12h13p12----------------|
G|-12b14----13p12-13p12----12h13h14----------14p13p12-------|
D|----------------------14----------------------------15-14-|
A|----------------------------------------------------------|
E|----------------------------------------------------------|

e|-----------------------------------------------------------|B|-------12--------------------------------------------------|
G|-12h13----14p13p12-14p13p12p10-----------------------------|
D|-------------------------------14p12p10--------------------|
A|----------------------------------------14p12p10-----------|
E|-------------------------------------------------14p12p10~-|

e|-------12--------------------------|
B|-15-------15p12--------------------|
G|----------------14-12b13----(13)\--|...
tracking img