Metallica

Solo disponible en BuenasTareas
  • Páginas : 3 (532 palabras )
  • Descarga(s) : 0
  • Publicado : 6 de diciembre de 2010
Leer documento completo
Vista previa del texto
-------------------------- MetallicA -------------------------------
Seek And Destroy
----------------

G5 A5 C5 D5 F#5 F5e|--------| e|-------| e|-------| e|-------| e|-------| e|-------|
B|--------| B|-------| B|-------| B|-------| B|-------| B|-------|
G|--------| G|-------| G|---5---| G|---7---|G|----6--| G|----5--|
D|----5---| D|---7---| D|---5---| D|---7---| D|--4----| D|--3----|
A|----5---| A|---7---| A|-------| A|-------| A|-------| A|-------|
E|--------| E|-------|E|-------| E|-------| E|-------| E|-------|

G5(V) A

e|-------| e|-------|
B|-------| B|-------|
G|----7--| G|---2---|
D|--5----| D|---2---|
A|-------|A|---0---|
E|-------| E|-------|

Riff A. (Play 8 times)

e|| ---------------------------------|--------------------------------- ||
B||---------------------------------|--------------------------------- ||
G||.----------7h8-7------------------|-----------------------5---------.||
D||.--------------------------7h8-7--|--------------5-------------7----.||
A||-0---0-----------------0---------|--0---8---7--------7------------- ||
E|| ---------------------------------|--------------------------------- ||
^ ^ ^ ^ ^ ^ ^P.M. P.M. P.M. P.M.

Riff B.

e||---------------------------------||
B||---------------------------------||
G||-9---7-------7-------------------||D||---------9-------9---8---7sl5----||
A||---------------------------------||
E||---------------------------------||

Rhy. Fig. 1 (Play three times)

G5 A5 G5 A5
e||-----------------------------|---------------------------- ||
B|| -----------------------------|---------------------------- ||
G||.-----------------------------|----------------------------.||...
tracking img