Metallica

Solo disponible en BuenasTareas
  • Páginas : 5 (1093 palabras )
  • Descarga(s) : 0
  • Publicado : 23 de marzo de 2011
Leer documento completo
Vista previa del texto
*2*Play Twice*2*
|----------------0h2p0-----3------------------------------------------|
|-------------3--------3-----------3---3-----0-----0-------0-------0--|
|------0----2---2--------2-------0---0---0-------2-------2-------2----|
|----2----0--------------------------------2-----------------0-1------||--2---------------------------3---------------0-----0-2-------------2|
|0--------------------------------------------------------------------|

Middle solo distorted:
|----19-15----17-14-------------17-14----15-12-----------------------|}|-17-------17-------15-15-15-15-------15-------13-13-13-13-----------|}
|--------------------------------------------------------------------|}
|--------------------------------------------------------------------|}
|--------------------------------------------------------------------|}
|--------------------------------------------------------------------|}*2*PLAY TOP AND BOTTOM TOGETHER TWICE*2*

|-15-12----14-12h14p12-11-------------------11-12-14-----------------|}
|-------13----------------13-12-13-15-13-15--------------------------|}
|--------------------------------------------------------------------|}|--------------------------------------------------------------------|}
|--------------------------------------------------------------------|}
|--------------------------------------------------------------------|}




|----------------15----15-17----19-15-12-----------------------------||-17-17-17-17-19----19-------19----------13~~------------------------|
|--------------------------------------------------------------------|
|--------------------------------------------------------------------|
|--------------------------------------------------------------------||--------------------------------------------------------------------|

|---------15-14----15-14---------------------------------------------|
|-15b-15b-------12-------12----------15------------------------------|
|---------------------------12-14-12-14b-14-12-----------------------|
|----------------------------------------------14~~------------------||--------------------------------------------------------------------|
|--------------------------------------------------------------------|

|--------------------------------------------------------------------|
|--------------------------------------------------------------------||-12-------12-12h14p12-11----14-12-11--------------------------------|
|----14-12----------------12----------10~~---------------------------|
|--------------------------------------------------------------------|
|--------------------------------------------------------------------||----------------------------15-11/12-11-------12//19----------------|
|----------------------------------------12-11-11//17----------------|
|--------------------9-10-12-----------------------------------------|
|-7-9-10~~-7-9-10-12-------------------------------------------------|
|--------------------------------------------------------------------|...
tracking img