Mewt tab

Solo disponible en BuenasTareas
  • Páginas : 12 (2753 palabras )
  • Descarga(s) : 0
  • Publicado : 25 de abril de 2011
Leer documento completo
Vista previa del texto
Mewt (Acoustic Guitar Version)
~ White Melodies of Final Fantasy Tactics Advance
Composed by:
Hitoshi Sakimoto, Nobuo Uematsu, Kaori Ohkoshi, Ayako Saso
Arranged by:
Yo Yamazaki, Akira Sasaki, Satoshi Henmi
Tabbed by: Justin Lincoln

Guitar 1NH
Q Q H H Q Q H Q Q
E||-------------------------|-------------------0----|------------------------|
B||----------12-------------|-----------8g10---------|--8g10--------8---------|G||--4/---------------------|------------------------|-------------------7----|
D||-------------------------|------------------------|------------------------|
A||-------------------------|------------------------|------------------------|
E||-------------------------|------------------------|------------------------|

Q H Q Q H. QH Q
--------------------------|-----------------------|---------------------------|
--8----8g7----------------|-----------------------|---------------------------|
--------------------------|-----------------------|--5g7---------------5g7----|------------------7g10----|--9\----5g7------------|---------5g7---------------|
--------------------------|-----------------------|---------------------------|
--------------------------|-----------------------|---------------------------|

NH NH
H H W Q Q H-----------------------|--5g7----------------|-------------------------|
-------------12--------|---------------------|----------12-------------|
--5--------------------|---------------------|--4/---------------------|
-----------------------|---------------------|-------------------------|-----------------------|---------------------|-------------------------|
-----------------------|---------------------|-------------------------|

H Q Q H Q Q Q H Q
-------------------0----|------------------------|-------------------------|-----------8g10---------|--8g10--------8---------|--7g8----8g7-------------|
------------------------|-------------------7----|--------------------5----|
------------------------|------------------------|-------------------------|
------------------------|------------------------|-------------------------|
------------------------|------------------------|-------------------------|NH
Q H. Q H Q H H
----------------------|-------------------------|-----------------------|
----------------------|-------------------------|-------------12--------|--4----4g2------------|--5g7-------------5g7----|--5--------------------|
----------------------|---------7---------------|-----------------------|
----------------------|-------------------------|-----------------------|
----------------------|-------------------------|-----------------------|

W H. Q E...
tracking img