Music

Solo disponible en BuenasTareas
  • Páginas : 5 (1006 palabras )
  • Descarga(s) : 0
  • Publicado : 29 de mayo de 2011
Leer documento completo
Vista previa del texto
RED
Never Be The Same
Tabbed by U B the band
Tuning Bb F Bb Eb G C

Legend
/-slide up

Intro: Guitar 1 (Acoustic)
C|---------------------------------------------------------------------------|G|--------1-----------------1-----------------1-----------------3------------|
Eb|-----------2-----------2-----2-----------------2-----------0------2--------|
Bb|-----3---------3----0------------0-------3---------3-----------------------|
F|--1------------------------------------------------------------------------|Bb|--------------------------------------3-----------------5------------------|

Intro: Guitar 1 (Acoustic)
C|---------------------------------------------------------------------------|
G|--------1-----------------1-----------------1-------3----/-5--5------------|Eb|-----------2-----------2-----2-----------2---------------------------------|
Bb|-----3---------3----0------------0-----------------------------------------|
F|--1-----------------------------------3---------3--------------------------|
Bb|---------------------------------------------------------------------------|

Verse 1: Guitar 1 (Acoustic) PLAY ENTIRE VERSE 2 TIMESC|---------------------------------------------------------------------------|
G|--------1-----------------1-----------------1-----------------3------------|
Eb|-----------2-----------2-----2-----------------2-----------0------2--------|
Bb|-----3---------3----0------------0-------3---------3-----------------------|F|--1------------------------------------------------------------------------|
Bb|--------------------------------------3-----------------5------------------|

Verse 1: Guitar 1 (Acoustic)
C|---------------------------------------------------------------------------|G|--------1-----------------1-----------------1-------3----/-5--5------------|
Eb|-----------2-----------2-----2-----------2---------------------------------|
Bb|-----3---------3----0------------0-----------------------------------------|
F|--1-----------------------------------3---------3--------------------------|Bb|---------------------------------------------------------------------------|

Chorus: Guitar 2 (Distorted) PLAY 2 TIMES
C|---------------------------------------------------------------------------|
G|---------------------------------------------------------------------------|Eb|--3-3-3-3--3-3-3-3--------------------------------------5-5-5-5--5-5-5-5---|
Bb|--3-3-3-3--3-3-3-3--5-5-5-5--5-5-5-5--3-3-3-3--3-3-3-3--5-5-5-5--5-5-5-5---|
F|--1-1-1-1--1-1-1-1--5-5-5-5--5-5-5-5--3-3-3-3--3-3-3-3--3-3-3-3--3-3-3-3---|
Bb|--------------------5-5-5-5--5-5-5-5--3-3-3-3--3-3-3-3---------------------|

Verse 2: Guitar 1 (Acoustic) PLAY ENTIRE VERSE 2 TIMESC|---------------------------------------------------------------------------|
G|--------1-----------------1-----------------1-----------------3------------|
Eb|-----------2-----------2-----2-----------------2-----------0------2--------|
Bb|-----3---------3----0------------0-------3---------3-----------------------|...
tracking img