Music

Solo disponible en BuenasTareas
  • Páginas : 6 (1393 palabras )
  • Descarga(s) : 0
  • Publicado : 30 de agosto de 2012
Leer documento completo
Vista previa del texto
INTRO:
Em7 G D11 A7sus4 (x4 veces)

Em7 G
Today is gonna be the day that they're
D11 A7sus4
gonna throw it back to you
Em7 G
By now you should've somehow
D11 A7sus4
realized what you gotta do
Em7 G
I don't believe that anybody
D11 A7sus4
feels the way I do
Cadd9 D11 A7sus4About you now

Em7 G
Backbeat the word is on the street that the
D11 A7sus4
fire in your heart is out
Em7 G
I'm sure you've heard it all before but you
D11 A7sus4
never really had a doubt
Em7 G
I don't believe that anybody
D11 A7sus4
feels the way I do
Em7 G D11 A7sus4
Aboutyou now

Cadd9
And all the roads we
D11 Em7
have to walk are winding
Cadd9
And all the lights that
D11 Em7
lead us there are blinding
Cadd9 D11
There are many things that I
G D11/F# Em7
Would like to say to you,
D11 A7sus4
but I don't know how

Cadd9 Em7 G
Cause maybe
Em7
You're gonna bethe one that
Cadd9 Em7 G
saves me?
Em7 Cadd9 Em7 G
And after all
Em7
You're my wonder
Cadd9 Em7 G Em7
wall

Em7 G
Today is gonna be the day but they'll
D11 A7sus4
never throw it back to you
Em7 G
By now you should've somehow
D11 A7sus4
realized what you're not to do
Em7 GI don't believe that anybody
D11 A7sus4
feels the way I do
Em7 G D11 A7sus4
About you now

Cadd9
And all the roads that
D11 Em7
lead you there are winding
Cadd9
And all the lights that
D11 Em7
light the way are blinding
Cadd9 D11
There are many things that I
G D11/F# Em7
Would like tosay to you,
D11 A7sus4
but I don't know how

Cadd9 Em7 G
Cause maybe
Em7
You're gonna be the one that
Cadd9 Em7 G
saves me?
Em7 Cadd9 Em7 G
And after all
Em7
You're my wonder
Cadd9 Em7 G Em7
wall

Cadd9 Em7 G
\:I said maybe (I said maybe)
Em7
You're gonna be the one that
Cadd9 Em7 G
saves me?Em7 Cadd9 Em7 G
And after all
Em7
You're my wonder
Cadd9 Em7 G Em7
wall:/

Cadd9 Em7 G Em7 (x5 veces
\______/
||||||
|12|||
||||34
||||||
Em7
\______/
||||||
||1|||
|2||34
||||||
Cadd9
\______/
X|||||
|||1||
||||34
||||||
D11
\______/
||||||
||1|||
||||34
||||||
A7sus4
||||||
1||2||
||||34
||||||
D11/F#
Intro;Am Am7 F G
e|----------------------------|-----------------------|
B|-------1---0--------0-h-1---|---------1---------3---|
G|-----2---2---2---2--------2-|------2--2------4--4---|
D|---2-----------2------------|----3----3----5----5---|
A|-0--------------------------|--3---------5----------|
E|----------------------------|-----------------------|

I.
AmAm7 G
e|--------------------------|-------------------------|
B|-------1---0-------0-h-1--|--------1---0-----1-h-3--|
G|-----2---2---2---2--------|----------0---0----------|
D|---2-----------2----------|-----0----------0--------|
A|-0------------------------|---2---------------------|
E|--------------------------|-3-----------------------|
A hundred days had mademe older since the last time that
I saw your pretty face

Am Am7 F G
e|----------------------------|-----------------------|
B|-------1---0--------0-h-1---|---------1---------3---|
G|-----2---2---2---2--------2-|------2--2------4--4---|
D|---2-----------2------------|----3----3----5----5---|
A|-0--------------------------|--3---------5----------|...
tracking img