Musica

Solo disponible en BuenasTareas
  • Páginas : 7 (1687 palabras )
  • Descarga(s) : 0
  • Publicado : 23 de marzo de 2011
Leer documento completo
Vista previa del texto
Song: Wicked Game (Chirs Issac cover)
Preformed By: HIM
Album: Greatest Love Songs Vol. 666
Tabbed by: yourock87 (apaleshadeofgray@yahoo.com)

This is my frist tab, and I'm sure its correct.
I tabbed the song for 2 guitars and the solo. Enjoy

Standard tuning:E A D g b e

. - Palm Mute
* - Artificial Harmonic
/ - slide
b - bend
r - release bend
/x - pick scrape
~ - vibrato


Main Riff:
Both guitarse||-------------------|------------------|-----------------------|---------------||
b||-------------------|------------------|-----------------------|---------------||
g||---4-4-4-4-4-4-4-4-|--2-2-2-2-2-2-2-2-|--1-1-1-1-1------2---1-|--1-1-1-1-1-1--||
D||---4-4-4-4-4-4-4-4-|--2-2-2-2-2-2-2-0-|--2-2-2-2-2--2/4---4--2|--2-2-2-2-2-2--||A||---2-2-2-2-2-2-2-2-|--0-0-0-0-0-0-0-0-|--2-2-2-2-2------------|--2-2-2-2-2-2--||
E||-------------------|------------------|-----------------------|---------------||
PM . . . . . . . . . . . . . . . . . . . . . . .


Verse A:
Both guitarse||-------------------|------------------|-------------------|-------------------||
b||-------------------|------------------|-------------------|-------------------||
g||.--4-4-4-4-4-4-4-4-|--2-2-2-2-2-2-2-2-|--1-1-1-1-1-1-1-1--|---1-1-1-1-1-1-1-1.||D||.--4-4-4-4-4-4-4-4-|--2-2-2-2-2-2-2-2-|--2-2-2-2-2-2-2-2--|---2-2-2-2-2-2-2-2.||
A||---2-2-2-2-2-2-2-2-|--0-0-0-0-0-0-0-0-|--2-2-2-2-2-2-2-2--|---2-2-2-2-2-2-2-2-||
E||-------------------|------------------|-------------------|-------------------||
PM . . . . . . . . . . . . . . . . . . . . . . . . . . . . . . . .
World was on firee||-------------------|------------------|-----------------------|---------------||
b||-------------------|------------------|-----------------------|---------------||
g||---4-4-4-4-4-4-4-4-|--2-2-2-2-2-2-2-2-|--1-1-1-1-1------2---1-|--1-1-1-1-1-1--||
D||---4-4-4-4-4-4-4-4-|--2-2-2-2-2-2-2-0-|--2-2-2-2-2--2/4---4--2|--2-2-2-2-2-2--||A||---2-2-2-2-2-2-2-2-|--0-0-0-0-0-0-0-0-|--2-2-2-2-2------------|--2-2-2-2-2-2--||
E||-------------------|------------------|-----------------------|---------------||
PM . . . . . . . . . . . . . . . . . . . . . . .


Strange what desireGuitars differ from here on
Pre Chorus:

Rythm guitar:
e||-------------------|------------------|-----------------------|---------------||b||-------------------|------------------|-----------------------|---------------||
g||---4-4-4-4-4-4-4-4-|--2-2-2-2-2-2-2-2-|--1-1-1-1-1------2---1-|--1-1-1-1-1-1--||
D||---4-4-4-4-4-4-4-4-|--2-2-2-2-2-2-2-2-|--2-2-2-2-2--2/4---4--2|--2-2-2-2-2-2--||
A||---2-2-2-2-2-2-2-2-|--0-0-0-0-0-0-0-0-|--2-2-2-2-2------------|--2-2-2-2-2-2--||...
tracking img