Musik

Solo disponible en BuenasTareas
  • Páginas : 3 (534 palabras )
  • Descarga(s) : 0
  • Publicado : 7 de diciembre de 2012
Leer documento completo
Vista previa del texto
Em D
G---------------------
D---------------------
A-7-7?7-7?7?5-5-5-5-5-
E----7---7-----5---5?-
EmD C G
G----------------------------------------------
D-------------------------------5-5----5-4-2-0-A-7-7?7-7?7?5-5-5-5-5-3-3-3-3-3----5?5---------
E----7---7-----5---5-----3---3-----------------
Em D C G
G--------------------------------------------D-------------------------------5-5----5-5-5-
A-7-7-7-7-7-5-5-5-5-5-3-3-3-3-3----5-5----5--
E----7---7-----5---5-----3---3---------------Em D C G
G----------------------------------------------
D-------------------------------5-5----5-4-2-0-A-7-7?7-7?7?5-5-5-5-5-3-3-3-3-3----5?5---------
E----7---7-----5---5-----3---3-----------------

Em D C GC G
G------------------------------------------------------------------
D-------------------------------5-5----5-5-5-----------5-5---5-5-5-A-7-7-7-7-7-5-5-5-5-5-3-3-3-3-3----5-5----5?-3-3-3-3-3----5-5---5--
E----7---7-----5---5-----3---3------------------3---3--------------

EmD C G C G
G--------------------------------------------------------------------D-------------------------------5-5----5-5-5-----------5-5---5-4-2-0-
A-7-7-7-7-7-5-5-5-5-5-3-3-3-3-3----5-5----5?-3-3-3-3-3----5-5--------
E----7---7-----5---5-----3---3------------------3---3----------------...
tracking img