Notas de el proximo viernes

Solo disponible en BuenasTareas
  • Páginas : 2 (339 palabras )
  • Descarga(s) : 0
  • Publicado : 17 de noviembre de 2011
Leer documento completo
Vista previa del texto
INTRO
C F
E |----------------------------------------------0-----|
B|------0-3--1/3-1----1/3-1----1/3-1-----1-1-3--------|
G |-0-0--------------0--------0---------0-----------2--|
D |----------------------------------------------------|
A|---3-------3--------3--------3-----------3-------3--|
E |----------------------------------------------------|Dm G
E |----------------------0/1-0-----------0/1-0-------------------3-|
B|----1/3-1----1/3-1----------3-1/3-----------3-1/3-------1-----3-|
G |-2---------2--------2---------------2--------------0/2----2-----|
D|----------------------------------------------------------------|
A |----3--------3--------0-------0-------0-------0-----------------|
E |--------------------------------------------------------------3-|EL INTRO SE TOCA CON LA PARTE HABLADA DE LA CANCION
^
|(PARTE HABLADA)

Hola bebe… Lamento mucho lo sucedido…
Pero te amo…
Mucho te amo…
Bebe no andes con nadieporfa…


C G
Hola Bebe, ¿Cómo has estado?
F
Tal vez no sepas, quienhabla
Dm G
O tal vez lo hayas olvidado.

F C
Bebe, yo no soy tan malo...
tracking img