Notas

Solo disponible en BuenasTareas
  • Páginas : 9 (2091 palabras )
  • Descarga(s) : 17
  • Publicado : 18 de agosto de 2010
Leer documento completo
Vista previa del texto
Intro:
Am# Dm# Gm Fm

E |------------13-------------13----------------|
B |-------11-------------11------------11-------|
G |---14-----------14------------14-------------|x2
D |---------------------------------------------|
A |---------------------------------------------|E |---------------------------------------------|

Entra la batería...

Am# Dm# Gm Fm

E |------------13-------------13----------------|
B |-------11-------------11------------11-------|
G |---14-----------14------------14-------------|x7D |---------------------------------------------|
A |---------------------------------------------|
E |---------------------------------------------|

E |-------13----11------------------------|
B |-----------------11-------15-----------|
G |---------------------------------------|D |---------------------------------------|
A |---------------------------------------|
E |---------------------------------------|

Intro:
Am# Dm# Gm Fm


Am#
Estas aquí parada sin decirme
Gmque estas por mi
Fm
y quieres que lo nuestro nunca se acabe
Dm# Fm
pero no lo dices
Gm
y ahora estoy aqui acostado
Am#
y con mis manos aferrado a tipidiéndole al destino que
Dm# Fm
nunca me vaya a separar de tiiiiiiiiiiii...

Am#
por que te amo
Gm
no sabes todo lo que yo sufrí por ti
Dm#
noches en vela desdeque te vi
Fm
y ahora estas en mi
Dm# Fm
y yo pensando en que te extraño




Am#
uooouooo
e|--------------------------------------------|B|--------------------------------------------|
G|------3-2---3---3---3-2---------------------|
D|-----3-------3---3-------3------------------|
A|----------------------------3---------------|
E|---1----------------------------------------|

Gm,
uoouooe|---------------------------|
B|---------------------------|
G|------3-2---2--------------|
D|-----3---------3-----------|
A|-----------------3---------| Dm# Fm
E|---1---------------1-------| nooouoo nooouoo


(Cambio de ritmo)

Am#yo se que hiciste tantas cosas
Gm
cuando estaba el
Fm
y no supo apreciarte pues no supo ser
Dm# Fm
lo que tu quieres


riff 1
E |-----------------------------------|...
tracking img