One tab

Solo disponible en BuenasTareas
  • Páginas : 14 (3266 palabras )
  • Descarga(s) : 0
  • Publicado : 29 de febrero de 2012
Leer documento completo
Vista previa del texto
ONE – METALLICA

ReAlChRoNoS94


/ = Slide Up
= slide Down
h = Hammer On
p = Pull Off
b = Bend
r = Release
x = Muted String
t =Tap
~ = Vibrato
(DIS)= Con Distorsión
(ACU)= Acústica

[INTRODUCCIÓN]
[SONIDOS DE BATALLA]
[RIFF I]

GUITARRA RITMICA (ACÚSTICA)
e|---------------------------------------------------------------------------|b|---------------------------------------------------------------------------|
g|------------------------------------------------------------------------0--|
D|----4-----0--(0)------4-----0--(0)-------4-----0--(0)------4-----0--(0)----|
A|-2-----2------------------------------2-----2------------------------------|E|-------------------3-----3------------------------------3-----3------------|


e|--------------------------------------------------------------------|
b|--------------------------------------------------------------------|
g|--------------------------------------------------------------------|D|----4------0--(0)------4-----0--(0)------4-----0--(0)---------------|
A|-2-----2------------0-----0--------------------------------2-----2--|
E|--------------------------------------3-----3-----------0-----2-----|

[SOLO DE INICIO (LENTO)] [EL RIFF I SE REPITE DURANTE TODO EL SOLO]

GUITARRA LÍDER (ACÚSTICA)e|-------------------------------------------|
b|-----------------3p2-----3p2-----3-3p2-----|
g|------2-4b6r4~-------4-------2---------4~--|
D|-2h4---------------------------------------|
A|-------------------------------------------|
E|-------------------------------------------|e|--------------------------------------------------------------------|
b|----------------------------------------2h3-2~------2-3p2-----------|
g|-11p97--9p76--7p64--6p42--/4~~---/4----------/4-------2-/4~~----|
D|--------------------------------------------------------------------|A|--------------------------------------------------------------------|
E|--------------------------------------------------------------------|

/Rake
e|-----14-19--17p15----15------|
b|---15-------------19----15~--|
g|-16--------------------------|
D|-----------------------------|A|-----------------------------|
E|-----------------------------|

e|-----------------------------------|
b|-----------------------------------|
g|-7p6-7--9p7-9--11p9-11--/12-12-11--|
D|-----------------------------------|[FINAL DEL SOLO]
e|-----------------------------------------------------------------------|
b|------------------------12--------12-14-15-/17-15-14-12-14-14--15-12~--|
g|-----11-12-14------11-12--------11-------------------------------------|
D|---12------------12-----------12---------------------------------------|...
tracking img