Paja

Solo disponible en BuenasTareas
  • Páginas : 2 (334 palabras )
  • Descarga(s) : 0
  • Publicado : 14 de marzo de 2012
Leer documento completo
Vista previa del texto
riff 1:

---------------------------------------
---------------------------------------------9-9-9-9-9--9-9-------------------x4
-------9-9-9-9-9--9-9--5-5-5--9-9-9-9---
---777-7-7-7-7-7--7-7--5-5-5--9-9-9-9--------------------------7-7-7--7-7-7-7---

riff 2
--------------------------------------------------------------------------------------------------------------------------------
-----------------------------------------------------------------9----------9----------------9------x-9-x-9-(9)9-x-9-9-9-9-9----
-7--7-7-7-7-7--7----------7--7--7-7-x-7-x-7-(7)7-x-7-6-6-6-6----
---------------5--5-5-5-5-5----------------------------------------------------------------------------------------
------------------------------------------------------------------------------------------------------
-6----------6--------------------------------------
-4--4-4-4-4-4--7----------7--9----------9-----9-------------------5--5-5-5-5-5--7--7-7-7-7-7-x-x-7----

riff 3:
------------------------------------2---4-----------------------------------------------------------2---4-----------------------
------------------------------------2---4---9---9--10-(10)10-------------------------------------4--4---2---9---9--9--(9)--9----
-5-----7---7---6-----6---6---6---4----------7--x7-x7--(7)--7----
-7---x-5-x-5---4---x-4-x-4-x-4---2------------------------------...
tracking img