Pantera this love tab

Solo disponible en BuenasTareas
  • Páginas : 2 (430 palabras )
  • Descarga(s) : 0
  • Publicado : 5 de mayo de 2011
Leer documento completo
Vista previa del texto
PANTERA
This Love

Transcribed by Patrick Mabry, from Guitar World Magazine

Tune down 1/2 step (Eb,Ab,Db,Gb,Bb,Eb)

v = vibrato
/\ = slide up or down
f = bend full step
h = half step bendq = quarter step bend
h = hammer on
p = pull off
() = sustain the note

A: Intro: moderate rock = 102
rhy fig 1 play 4 times||-----------------||-----------------||-----------------|-----------------|
||-----------------||-----------------||-----------------|-----------------|
||-----------------||-----2-----2-----||-----------------|-----------------|||-----2-----2-----||---4-----4---4---||-----2-----2-----|-----2-----2-----|
||---4-----4---4---||-2-----3-------3-||---4-----4---4---|---4-----4---4---|||-2-----3-------3-||-----------------||-2-----3-------3-|-2-----3-------3-|

|-----------------|-----------------|-----------------|-----------------|
|-----------------|-----------------|-----------------|-----------------||-----0-----0-----|-----2-----0-----|-----2-----0-----|-------2---------|
|---2-----2---2---|---2-----2---2---|---2-----2---2---|-----2-2---------|
|-4-----3-------3-|-4-----3-------3-|-4-----3-------3-|---2---3---------||-----------------|-----------------|-----------------|-4-----5---------|

end intro

B: Verses 1 & 2

1.If ever words were spoken painful and untrue.
2.I'd been the tempting one, stole herfrom herself.

|-----------------|-----------------|-----------------|-----------------|
|-----------------|-----------------|-----------------|-----------------||-----------------|-----------------|-----------------|-----------------|
|-----2-----2-----|-----2-----2-----|-----2-----2-----|-----2-----2-----|
|---4-----4---4---|---4-----4---4---|---4-----4---4---|---4-----4---4---||-2-----3-------3-|-2-----3-------3-|-2-----3-------3-|-2-----3-------3-|

1.I said I love, but I lied.
2.This gift in pain, her pain was life.

guitar repeats first 4 bars.

1.In my life, all I...
tracking img