Partitura

Solo disponible en BuenasTareas
  • Páginas : 2 (352 palabras )
  • Descarga(s) : 0
  • Publicado : 8 de noviembre de 2011
Leer documento completo
Vista previa del texto
PARTITURAS

DAN DAN kokoro hikareteku

--3-3-----3-5-3------------------------------------|
------5-6-------6-5----5-5-----5-6-5---------------|---------------------7-----5-7------7-5-4-2--------|
---------------------------------------------------|
---------------------------------------------------|
---------------------------------------------------|-----5-3-------------------------------------------|
-----------3-5-6-5-3---5--1-0-1--------------------|
-2-5-----5-----------5-----------------------------|
---------------------------------------------------|---------------------------------------------------|
---------------------------------------------------|

parte del medio
---8-8-8-8-8-6-4-6-8-6--6-6-6-6-6-4-3-4-6-4--------|-1-------------------------------------------------|
---------------------------------------------------|
---------------------------------------------------|
---------------------------------------------------|---------------------------------------------------|

-4-4-4-3---3---------3--3-4-6-8--8-8-8-8-8-6-4-6-8-6-|
---------6---6-6-4-6---------------------------------|-----------------------------------------------------|
-----------------------------------------------------|
-----------------------------------------------------|
-----------------------------------------------------|-6-6-8-10-10-11-6-4-3-4--4-6-4-3-3--3-15-13-12-----|
---------------------------------------------------|
---------------------------------------------------|
---------------------------------------------------|---------------------------------------------------|
---------------------------------------------------|

-12-13-12-11---4-6-8-8-8-8-8-8-6-10-8-6-4-3-3-3-3-3-3-|------------------------------------------------------|
------------------------------------------------------|
------------------------------------------------------|
------------------------------------------------------|...
tracking img