Partituras

Solo disponible en BuenasTareas
  • Páginas : 75 (18614 palabras )
  • Descarga(s) : 0
  • Publicado : 1 de septiembre de 2010
Leer documento completo
Vista previa del texto
Ancha es Castilla

intro x2
1|-------------------------------------------------------------
2|----8-----8--------------------------------------------------
3|-------10----10----8--8----7-8-7----------------------7------
4|--------------------------------------10--10---8--10---------5|-------------------------------------------------------------
6|-------------------------------------------------------------

1|-------------------------------------------------------------
2|-------------------8--8------8--9--8-------------------------3|--8--8--7--8--10---------10----------10--8--7--8--10--8--7---
4|-------------------------------------------------------------
5|-------------------------------------------------------------
6|-------------------------------------------------------------

1|------------------------------------------------------------82|----------------------------------------------------------8--
3|-------------------------7----7------------7------------9----
4|--10--8--10--8--10----8-----9---10------9-----10-------------
5|-------------------------------------------------------------
5|-------------------------------------------------------------1|----------------------------------
2|---1--1-1--3-4---3--1-------1-----
3|-0----------------------3------0--

1|-3--3---1----------1---1------3---1--
2|----------4----3--1------------------
3|-------------------------------------1|-----------------------------------
2|-------1--1-1----4---3--1------1---
3|----0-----------------------3-----0

1|-----------------------------
2|----1--1---------1--1--------
3|-----------0--0--------0--0--1|----3---3--3--------3--4--6----1------------------------------
2|---------------------------------------4---4--4---4--6--8----3
3|--------------------------------------------------------------

1|----3---3--3--------3--4--6----1----
2|------------------------------------
3|------------------------------------1|-------------------------------------8
2|--4---3--1----3--1-------1---------8--
3|----------------------3---------9-----

Intro x2

1|---------------------------------------
2|-------1--1-1--3-4---3--1------1-------3|----0------------------------3------0--

1|---3--3-----1----------------1---1------3---1--
2|----------------4----3--1----------------------
3|-----------------------------------------------

1|-------------------------------------
2|-------1--1-1--3-4---3--1------1-----3|----0-----------------------3-----0--

1|-------------------------
2|--1---------------1------
3|------0--0-----0-----0--0


1|----3---3--3--------3--4--6----1------------------------------
2|---------------------------------------4---4--4---4--6--8----3...
tracking img