Pensamiento educativo

Solo disponible en BuenasTareas
  • Páginas : 8 (1818 palabras )
  • Descarga(s) : 0
  • Publicado : 20 de agosto de 2012
Leer documento completo
Vista previa del texto
Intro D, G, A, A7, D [x2]


e|--------------10----------------------------------
B|--7/10-----10----10/12-------12-10-12-10-12-10----
G|---------11----------------12---------------------
D|--------------------------------------------------A|--------------------------------------------------
E|--------------------------------------------------

e|--------------------------------------------------|
B|---7-8-8-7----------------------------------------|
G|-9---------9-7-9/11-------------------------------|
D|--------------------------------------------------|A|--------------------------------------------------|
E|--------------------------------------------------|

THALIA
D G
Quiero beber los besos de tu boca, como si fueran gotas de rocío
A A7 D
Yahi en el aire dibujar tu nombre junto con el mío

PEDRO CAPÓ
D
Y en un acorde dulce de guitarra
G
pasear locuras en tus sentimientos
A A7 D
y en el sutil abrazo de la noche sepas lo que sientoCORO [DUETO]
G A D A Bm
Estoy enamorada/o, y tu amor me hace grande eh y eh
G A D
Estoy enamorada/o, y que bien que bien me hace amartee|--------------10----------------------------------
B|--7/10-----10----10/12-------12-10-12-10-12-10----
G|---------11----------------12---------------------
D|--------------------------------------------------
A|--------------------------------------------------
E|--------------------------------------------------e|--------------------------------------------------|
B|---7-8-8-7----------------------------------------|
G|-9---------9-7-9/11-------------------------------|
D|--------------------------------------------------|
A|--------------------------------------------------|E|--------------------------------------------------|

PEDRO CAPÓ
D
Dentro de ti quedarme en cautiverio
G
para sumarme el aire que respiras
A A7 D
y en cada espacio unir mis ilusiones junto con tu vidaTHALIA
D
Que si naufrago me quede en tu orilla
G
que de recuerdos solo me alimente
A A7 D
y que despierte del sueño profundo solo para verte?


CORO [DUETO]G A D A Bm
Estoy enamorada/o, y tu amor me hace grande eh y eh
G A D D
Estoy enamorada/o, y que bien que bien me hace amarte...

[DUETO]
Bm A...
tracking img