Piel canela

Solo disponible en BuenasTareas
  • Páginas : 2 (294 palabras )
  • Descarga(s) : 0
  • Publicado : 21 de febrero de 2012
Leer documento completo
Vista previa del texto
E--------------------------------------------------------------
A--------------------------------------------------------------
D--------------------------------------------------------------G--2-2-2-3-4-----2-2-2-3-4-------------------------------------
B----------------------------3---------------------------------
E------------3-0-----------2-----------------------------------E--------------------------------------------------------------
A--------------------------------------------------------------
D--------------------------------------------------------------G--2-2-2-3-4----------------2-4--------------------------------
B-------------------------------2-3----------------------------
E-------------3-0-0-5-3-2-0------------------------------------E--------------------------------------------------------------
A--------------------------------------------------------------
D--------------------------------------------------------------G--2-2---------------------2-2---------------------------------
B------0-0-0-0-----------3-----0-0-0-0-------------------------
E--------------2-2-2-2-0---------------2-2-2-2-5---------------E---------------------------------------------------------------
A---------------------------------------------------------------
D---------------------------------------------------------------G---------------------------------------------------------------
B----------------3-3-2-2-0-----------3-3-0-2-3------------------
E-3-2-3-2--2-0-0-----------1-0-1-0-0-----------0----------------

. . . . . . . ..
.
Bm E7 Amaj7 F#m
Que se quede el infinito sin estrellas
Bm E7 Amaj7 F#m
que pierda el ancho mar su inmensidad,
G#m7b5C#7 F#m
pero el negro de tus ojos que no mueran
Bm E7
piel canela de tu piel se quede igual.

Si perdiere el arco iris su belleza,
las flores su...
tracking img