Principe de la dulce pena-tab para guitarra de flamenco

Solo disponible en BuenasTareas
  • Páginas : 3 (738 palabras )
  • Descarga(s) : 0
  • Publicado : 16 de junio de 2011
Leer documento completo
Vista previa del texto
^ v ^ v ^ v ^ v
E||--0-0-0-0-0-0-0-0-0------------|
B||--0-0-0-0-0-0-0-0-0------------|
G||--2-2-2-2-2-2-2-2-2------------|D||--3-3-3-3-3-3-3-3-3------------|
A||--3-3-3-3-3-3-3-3-3------------|
E||--0-0-0-0-0-0-0-0-0------------|^ v ^ v ^ v ^ v ^ v ^ v ^ v ^ v ^
--0-0-0-0-0-0-0-0-0-0-0-0-0-0-0-0-0--------|
--0-0-0-0-0-0-0-0-0-0-0-0-0-0-0-0-0--------|--2-2-2-2-2-2-2-2-2-2-2-2-2-2-2-2-2--------|
--3-3-3-3-3-3-3-3-3-3-3-3-3-3-3-3-3--------|
--3-3-3-3-3-3-3-3-3-3-3-3-3-3-3-3-3--------|--0-0-0-0-0-0-0-0-0-0-0-0-0-0-0-0-0--------|


^
--L--------|--0-----------------------|--0----0-----------------|--L--------|---------3-2--0-----0-2-3-|---------3--3-2--0--0----|
--L--------|--2---------------2-------|--2----------------------|--L--------|--3-----------------------|--3----------------------|
--L--------|--3-----------------------|--3----------------------|--L--------|--1--------0--------------|--1-----------0----------|


^ ^
--0----0------------------------|--0----0-----------------|---------3--3-2--3----0-2---0-2-|---------3--3-2--0--0----|
--2-----------------2-----2-----|--2----------------------|--3-----------------------------|--3----------------------|
--3-----------------------------|--3----------------------|
--1-----------0-----------------|--1-----------0-----L----|...
tracking img