Rat race billy idol

Solo disponible en BuenasTareas
  • Páginas : 3 (686 palabras )
  • Descarga(s) : 7
  • Publicado : 1 de agosto de 2010
Leer documento completo
Vista previa del texto
Billy idol Rat race
From the album Devils playground
Track: 3
Tabbed by Liam
Email: guitar_rocker_47@hotmail.com
Tuning half a step down

The verse 1 is not tabbed out as played but thoseare definitely the chords that are
it is mostly improvised so don’t worry but as a simple guideline for picking the chords,
with picking the lower notes then move on to the higher ones.

Verse1 (these chords picked out as notes)
E|---------------------3-------2---|
B|-1---------1---------3-------3---|
G|-2---------0---------0-------2---|
D|-2---------2---------0-------0---|A|-0---------3---------2-----------|
E|---------------------3-----------|

Chorus
E|-------------------------------------------------------------------|B|-------------------------------------------------------------------|
G|-xx-xx---2~~-----------5~~-----------------------------------------|
D|-xx-xx---2~~-----------5~~-----------5~~-----------7~~----------7--|A|-xx-xx---0~~-00000000--3~~-33333333--5~~-----------7~~--------7777-|
E|-------------------------------------3~~-33333333--5~~-555555-5555-|
PM ****E|-----------------------------------------------------------|
B|-----------------------------------------------------------|
G|-2~~-----------5~~------------------------------------xxxx-|D|-2~~-----------5~~-----------5~~-----------7~~--------xxxx-|
A|-0~~-00000000--3~~-33333333--5~~-----------7~~--------xxxx-|
E|-----------------------------3~~-33333333--5~~-555555------|

Verse 2(these chords picked out as notes)E|---------------------3-------2---|
B|-1---------1---------3-------3---|
G|-2---------0---------0-------2---|
D|-2---------2---------0-------0---|
A|-0---------3---------2-----------|E|---------------------3-----------|
Then...
E|---------------------------------------|-------------------------------------|
B|---------------------------------------|-------------------------------------|...
tracking img