Refugio esteves reyes

Solo disponible en BuenasTareas
  • Páginas : 2 (477 palabras )
  • Descarga(s) : 0
  • Publicado : 29 de agosto de 2012
Leer documento completo
Vista previa del texto
e|-----12----12-----|-----10----10-----|-----10----10-----|-10----10----10---|
B|---12----12----12-|---12----12----12-|---12----12----12-|-----12----12-----|G|-12----12----12---|-12----12----12---|-11----11----11---|---11----11----11-|
D|------------------|------------------|------------------|------------------|A|------------------|------------------|------------------|------------------|
E|------------------|------------------|------------------|------------------|Riff 2-Gutarra
e|-----5-----5-------|---0-2---0-2---0-2-|
B|-5-5---5-5---5-5-8-|-3-----3-----3-----|
G|-------------------|-------------------|D|-------------------|-------------------|
A|-------------------|-------------------|
E|-------------------|-------------------|Riff 3-Clavicordio
e|-----7----7----|-----7----7----|-----7----7----|-----7----7----|B|---8----8----8-|---8----8----8-|---7----7----7-|---7----7----7-|
G|-9----9----9---|-7----7----7---|-7----7----7---|-7----7----7---|
D|---------------|---------------|---------------|---------------|A|---------------|---------------|---------------|---------------|
E|---------------|---------------|---------------|---------------|e|-----7----7----|-----7----7----|----7----7-----|-7-|
B|---8----8----8-|---8----8----8-|---7----7----7-|---|
G|-9----9----9---|-7----7----7---|-7----7----7---|---|R|---------------|---------------|---------------|---|
A|---------------|---------------|---------------|---|
E|---------------|---------------|---------------|---|...
tracking img