Regiones nathurales

Solo disponible en BuenasTareas
  • Páginas : 3 (557 palabras )
  • Descarga(s) : 0
  • Publicado : 26 de octubre de 2010
Leer documento completo
Vista previa del texto
CUMBIA DE LOS PAJARITOS O DANZA DE LOS MIRLOS

Riff. 1 (siempre de toca 4 veces)-----------------------------------------------------------------------
----------------------------------------------------------------------------------------------------------------------------------------------
------------0h-2-2-2-2---0---------------------------------------------
--0-0-0-0-3-----------2-----0-----------------------------------------------------------------------------------------------------------------


Riff. 2--------0-0-0-0-1------------------------------------------------------
-----1------------0-3----------------------------------------------------2--------------------2-----------------------------------------------
----------------------------------------------------------------------------------------------------------------------------------------------
-----------------------------------------------------------------------


Riff. 3--------0-0-0-0-3------------------------------------------------------
--1---1------------0-3-----------------------------------------------------2------------------2-----------------------------------------------
----------------------------------------------------------------------------------------------------------------------------------------------
-----------------------------------------------------------------------


Riff. 4 se toca 3 veces...
tracking img