Richeishereman

Solo disponible en BuenasTareas
  • Páginas : 12 (2773 palabras )
  • Descarga(s) : 0
  • Publicado : 11 de septiembre de 2012
Leer documento completo
Vista previa del texto
Blink 182 – Heart’s All Gone (interlude)
INTRO x2
e|-----5-------5---|-----------------|
B|---5-------5-----|--6--------------|
G|-----------------|-----------------|
D|-7-------7-------|-----------------|
A|-----------------|-----------------|
E|-----------------|-----------------|VERSE a x3
e|-----------------|-----------------|-----------------|-----------------|
B|-----------------|-----------------|-----------------|-----------------|
G|-------5--5------|-------5--5------|--------5-----5--|--------5-----5--|D|-----------------|-----------------|--3--3-----2-----|--3--3-----2-----|
A|-0--0--------0---|-0--0--------0---|-----------------|-----------------|
E|-----------------|-----------------|-----------------|-----------------|

VERSE a x3
e|-----------------|-----------------|-----------------|-----------------|B|-----------------|-----------------|-----------------|-----------------|
G|-------5--5------|-------5--5--7---|--------5-----5--|--------5-----5--|
D|-----------------|-----------------|--3--3-----2-----|--3--3-----2-----|
A|-0--0--------0---|-0--0------------|-----------------|-----------------|
E|-----------------|-----------------|-----------------|-----------------|CHORUS x2
e|-----------------|-----------------|-----------------|-----------------|
B|-----------------|-----------------|-----------------|-----------------|
G|-5--5--5---5-5-5-|-7--7--7---7-7-7-|-----------------|-----------------|D|-5--5--5---5-5-5-|-7--7--7---7-7-7-|-3--3--3--2--2---|-3--3--3--2--2---|
A|-3--3--3---3-3-3-|-5--5--5---5-5-5-|-3--3--3--3--3---|-3--3--3--3--3---|
E|-----------------|-----------------|-1--1--1--0--0---|-1--1--1--0--0---|

VERSE a x3
e|-----------------|-----------------|-----------------|-----------------|B|-----------------|-----------------|-----------------|-----------------|
G|-------5--5------|-------5--5------|--------5-----5--|--------5-----5--|
D|-----------------|-----------------|--3--3-----2-----|--3--3-----2-----|
A|-0--0--------0---|-0--0--------0---|-----------------|-----------------|
E|-----------------|-----------------|-----------------|-----------------|VERSE a x3
e|-----------------|-----------------|-----------------|-----------------|
B|-----------------|-----------------|-----------------|-----------------|
G|-------5--5------|-------5--5--7---|--------5-----5--|--------5-----5--|D|-----------------|-----------------|--3--3-----2-----|--3--3-----2-----|
A|-0--0--------0---|-0--0------------|-----------------|-----------------|
E|-----------------|-----------------|-----------------|-----------------|

CHORUS x2
e|-----------------|-----------------|-----------------|-----------------|B|-----------------|-----------------|-----------------|-----------------|
G|-5--5--5---5-5-5-|-7--7--7---7-7-7-|-----------------|-----------------|
D|-5--5--5---5-5-5-|-7--7--7---7-7-7-|-3--3--3--2--2---|-3--3--3--2--2---|
A|-3--3--3---3-3-3-|-5--5--5---5-5-5-|-3--3--3--3--3---|-3--3--3--3--3---|
E|-----------------|-----------------|-1--1--1--0--0---|-1--1--1--0--0---|...
tracking img