Riders on the storm

Solo disponible en BuenasTareas
  • Páginas : 3 (550 palabras )
  • Descarga(s) : 0
  • Publicado : 15 de octubre de 2010
Leer documento completo
Vista previa del texto
Riders On The Storm
Words and Music by The Doors

with vib. effect B(0.25)
|--------|---------|--------|------------|------|---------|---------------||--------|---------|--------|------------|------|---------|---------------|
|--------|---------|--------|------------|------|---------|---------------||--------|2---2-0-2|--------|2-2-2-0-2-0-|------|---------|---------------|
|--------|---------|--------|-----------2|0-----|0-0-0-3-0|---------------|
|--------|---------|--------|------------|------|---------|-0-------------|
Riders on riders on in-to thisin-to this world
the storm the storm house were born were thrown

|---------|--------------|-----------|-------------|----------------||---------|--------------|-----------|-------------|----------------|
|---------|--------------|0----------|-------------|----------------|
|2-0------|--------------|2----------|-------------|----------------||---2-0---|--------------|3----------|-------------|----------------|
|------3-0|--5-----------|-----------|-0-----------|-(0)------------|
Like a dog an actor out Riders on There's a
without a bone on loan.on the storm
Rhy.Fig.1
|-----------------|------------|--------------------|
|-0---0-2---2-3---|---3-2---2--|--------------------|
|---0-----0-------|-0-----0---0|---repeat last-two--||-----------------|------------|------------bars----|
|-----------------|------------|--------------------|
|-----------------|------------|--------------------|
killer on the road, his brain issquirming like a toad. Take

|----------7-7-|8-8---10-10-|-----------|---------------|
|-5--5-----7-7-|8-8---12-12-|0-0-2---2-3|---3-2---2-----||--------------|9-9---11-11-|-0----0----|-0-----0-------|
|--------------|------------|-----------|---------------|
|--------------|------------|-----------|---------------|
|--------------|------------|-----------|---------------|
a long holiday...
tracking img