Rock en español

Solo disponible en BuenasTareas
  • Páginas : 28 (6878 palabras )
  • Descarga(s) : 0
  • Publicado : 5 de diciembre de 2010
Leer documento completo
Vista previa del texto
INTRODUCCION:
E--7---10-----------5---5---4---4---7----7--------
B-----------5---5---------------------------------
G--7---10---5---5---5---5---4---4---7----7--------
D-------------------------------------------------
A-------------------------------------------------E-------------------------------------------------

E-----------5---5---4---7---7---10----10----------
B--5----5-----------------------------------------
G--5----5---5---5---4---7---7---10----10----------
D-------------------------------------------------
A-------------------------------------------------E-------------------------------------------------

RIFF 1:

E-------------------------------------------------
B------1---0---1-----0---1---0---1----------------
G--1/2---2---2---2-----2---2---2---2--------------
D-------------------------------------------------A-------------------------------------------------
E-------------------------------------------------

E------------------------------
B-------0---0---0---0----------
G--1/2----2---2---2------------
D------------------------------
A------------------------------E------------------------------

Am C Bº E7
Hay amores que esconden un suicidio
Am C Bº E7
hay amores que calman la calma
Am C Bº E7
hay amores que nunca se esconden
Am C Bº E7hay amores que sangran el camino.

_______________________INTRODUCCION_________________________


__________________________RIFF 1 ___________________________
Am C Bº E7
Hay amores que elevan a los santos
Am C Bº E7hay amores que lloran su dicha
Am C Bº E7
hay amores que niegan su nacimiento
Am C Bº E7
pero hay uno que es letal y es el tuyo.

RIFF 2:

E--17vvvvv------------------------------13---12--17--16-B--17vvvvv---------------12-13-15-12-15-----------------
G-------------------------------------------------------
D-------------------------------------------------------
A-------------------------------------------------------
E-------------------------------------------------------E--17vvvvv------------------------------13---15--12vvvv-
B--17vvvvv---------------12-13-15-12-15-----------------
G-------------------------------------------------------
D-------------------------------------------------------
A-------------------------------------------------------E-------------------------------------------------------




Am Dm E7
hay amores que matan
Am Dm E7
ay amor el tuyo mata
Am Dm E7
hay amores que matan
Am Dm E7
pero el mio no resucita...
tracking img