Rock

Solo disponible en BuenasTareas
  • Páginas : 5 (1070 palabras )
  • Descarga(s) : 0
  • Publicado : 24 de noviembre de 2010
Leer documento completo
Vista previa del texto
G D Em C
1. --3----------2----------0----------0----------|
2. --0-0-3------3-0-3------0-0-3------1-0-3------|
3. --0-----4-5--2-----4-5--0-----4-5--0-----4-5--|
4. --0----------0----------2----------2----------|
5. --2----------0----------2----------3----------|
6. --3---------------------0----------0----------|

G Bm C DEm
1. --3----------2--------0--------2----------0---3--|
2. --0-0-3------3-0-3----1-0-3----3-0-3------0-0----|
3. --0-----4-5--4-----4--0-----4--2-----4-5--0------|
4. --0----------4--------2--------0----------2------|
5. --2----------2--------3--------0----------2------|
6. --3-------------------0-------------------0------|

Verso:

G C D CRayando el sol, rayando por ti,
1. -----------------3—-0--------------------2-2----0-0---0----|
2. -----------------0--1--------------------3------1-------1--|
3. -----------------0--0--------------------2---2--0---0------|
4. -----------------0--2--------------------0------2----------|
5. -----------------2--3--------------------0------3----------|
6.-----------------3--0--------------------------------------|

G C D C
esta pena me duele, me quema sin tu amor,
1. ------3---3--------------0---0-----------2---------3--|
2. ------0-----0------------1-----1---------3-5-3---5----|
3. ------0-0----------------0-0-------------2-----4------|
4. ------0------------------2---------------0------------|
5.------2------------------3---------------0------------|
6. ------3------------------0----------------------------|

Bm C D C
no me has llamado, estoy desesperado,
1. -------2-----3--------0-----0------2-0--------3-5--|
2. -------3---3----------1---1--------3---3--5-3------|
3. -------4-4------------0-0----------2---------------|
4.-------4--------------2------------0---------------|
5. -------2--------------3------------0---------------|
6. ----------------------0----------------------------|

Bm C D
son muchas lunas las que te he llorado
1. -----2-2----------0-0---------------2-----------|
2. -----3-----3------1-----1-----------3-5-3-5--3--|
3. -----3---3--------0---0-------------2-----------|
4.-----4------------2-----------------0-----------|
5. -----2------------3-----------------0-----------|
6. ------------------0-----------------------------|

CORO:

G D Em C
Rayando el sol, ohe oh, desesperación,
1. ------------3//-----2//-------------------------|
2. ------------3//-----3//-------------3/5\3-------|
3.------------4//-----2//-------------------4-4b--|
4. ------------5//-----0//-------------------------|
5. ------------5//-----0//-------------------------|
6. ------------3//---------------------------------|

G Bm C D
es mas fácil llegar al sol que ha tu corazón,
1. --------3---------------2-----------------0---------|
2. --------3---------------3-----------------1---------|
3.--------4---------------4-----------------0---------|
4. --------5---------------4-----------------2---------|
5. --------5---------------2-----------------3---------|
6. --------3---------------------------------0---------|

G D Em C
me muero por ti, ohe oh, viviendo sin ti,
1. -------------3//-----2//--------------0//--------------|
2.-------------3//-----3//--------------0//--3/5\3-------|
3. -------------4//-----2//--------------0//--------4-4b--|
4. -------------5//-----0//--------------2//--------------|
5. -------------5//-----0//--------------2//--------------|
6. -------------3//----------------------0//--------------|

G Bm C D
y no aguanto, me duele tanto estar así...
1....
tracking img