Rsvs

Solo disponible en BuenasTareas
  • Páginas : 2 (304 palabras )
  • Descarga(s) : 0
  • Publicado : 4 de enero de 2012
Leer documento completo
Vista previa del texto
Rock & Roll can rescue the world Electric Eel shock
Go Europe!

Intro:|-----------------------|-----------------------|-----------------------|-------------------------------------|
|-----------------------|-----------------------|-----------------------|--------------6/8-6---------------||-----------------------|-----------------------|-----------------------|-----------------------8-6---------|
|-----------------------|-----------------------|-----------------------|-----------------------------9-6-4|

Couplet 1:|--------------------|--------------------|--------------------|--------------------------|
|--------------------|--------------------|--------------------|--------------------------||--------------4----|--------------4-----|--------------4----|--------------4----------|
|-6—--4--4-------|-6—--4--4-------|-6—--4--4-------|-6—--4--4-------4—5||-------------------------|------------------------|------------------------|----------------------------------|
|-------------------------|------------------------|------------------------|----------------------------------||--------------4---------|--------------4--------|--------------4---------|--------------4-4-4-4-4-4-4-4|
|-6—--4--4-------4-5|-6—--4--4-------4-5|-6—--4--4-------4-5|-6—--4--4----------------------|

Refrain:|----------------------|---------------------|----------------------|---------------------|
|----------------------|---------------------|----------------------|-----3----3-3-6-3||--------------------3|-4-4-4-4-4-4-4---|-------------------3-|4-4----4-----------|
|-6-6-6-6-6-6-6---|--------------------4|-6-6-6-6-6-6-6---|---------------------||----------------------|------------------------|----------------------|-------------------|
|----------------------|------------------------|----------------------|-------------------|
|--------------------3|-4-4-4-4-4-4-4------|-------------------3-|4--4--4----------|...
tracking img