Rubber soul

Solo disponible en BuenasTareas
  • Páginas : 28 (6914 palabras )
  • Descarga(s) : 0
  • Publicado : 11 de enero de 2011
Leer documento completo
Vista previa del texto
Drive my car

Intro:
D
-|---------------------------------------------------------------
-|---------------------6b(7)-----7--7--5-----5--7----------------
-|-----5--5b(7)--5------------5--7--7--5-----5--7----------------
-|--7---------------7---------------------7----------------------
-|----------------------------------------------------------------|---------------------------------------------------------------
Asked a girl what she wanted to be
D G
-|---------------------------------------------------------------
-|---------------------------------------------------------------
-|----------------------------------------------------------------|-----------------7---------------------------------------------
-|--5---------7/9-----9\7--5---------------------5---------------
-|-----------------------------3------------5/7-----7\5--3-------

She said baby Can't you see
D G
-|---------------------------------------------------------------
-|----------------------------------------------------------------|---------------------------------------------------------------
-|-----------------7---------------------------------------------
-|--5---------7/9-----9\7--5---------------------5---------------
-|-----------------------------3------------5/7-----7\5--3-------

I wanna be famous a star of the screen
D G
-|-----------------------------------------------------------------|----------------------------------------------------------------
-|----------------------------------------------------------------
-|--------------------7-------------------------------------------
-|--5------------7/9-----9\7--5------------------------5----------
-|--------------------------------3---------------5/7-----7\5--3--

But you can do something in between
ABm
-|----------------------------------------------------------------
-|----------------------------------------------------------------
-|----------------------------------------------------------------
-|----------------------------------------------------------------
-|-----------7--7-----7--7----------------7--9--7------------------|-----------5--5-----5--5-----------7/9-----------9--7-----------

Chorus:
Bm A G A
Baby you can drive my car (see note)
-|------------------------------------------------------------
-|---------------------------------3-----5--6--5-----3--------
-|---------------------------------4-----5--7--5-----4---------|--9-----9--------9------9--7--5-----5-----5-----5--7--------
-|--9-----9--------9------9--7--5-----5-----5-----5--7--------
-|--7-----7--------7------7--5--3-----3-----3-----3--5--------

Bm A G A
Yes I'm gonna be a star
-|---------------------------------------------------------
-|------------------------------3-----5--6--5-----3---------|------------------------------4-----5--7--5-----4--------
-|--9-------9-----9----9--7--5-----5-----5-----5--7--------
-|--9-------9-----9----9--7--5-----5-----5-----5--7--------
-|--7-------7-----7----7--5--3-----3-----3-----3--5--------

Bm
Baby you can drive my car
-|--------------------------------
-|--------------------------------
-|---------------------------------|--9-----9--------9-----9--------
-|--9-----9--------9-----9--------
-|--7-----7--------7-----7--------

Em A D G A
And baby I love you
-|---------------------------------------------------------------------
-|---------------------------------------------------------------------
-|---------------------------------------------------------------------...
tracking img