Secundaria

Solo disponible en BuenasTareas
  • Páginas : 2 (354 palabras )
  • Descarga(s) : 0
  • Publicado : 19 de agosto de 2012
Leer documento completo
Vista previa del texto
Legend Of Zelda - Song of Storms
By CSGuitar89

Intro

Rhythm 1 & 2
E|---5-5---7----8--8---7-|---5-5---7----8--8---7-|
B|---6-6---8---10-10---8-|---6-6---8---10-10---8-|G|---7-7---9---10-10---9-|---7-7---9---10-10---9-|
D|-0-----2---3-------2---|-0-----2---3-------2---|
A|-----------------------|-----------------------|
E|-----------------------|-----------------------|E|---5-5---7----8--8---7-|---5-5---5---5-5---5-|
B|---6-6---8---10-10---8-|---6-6---6---6-6---5-|
G|---7-7---9---10-10---9-|---7-7---5---7-7---6-|
D|-0-----2---3-------2---|-8---------8-----7---|A|-----------------------|-------8-------------|
E|-----------------------|---------------------|

E|---5-5---7----8--8---7-|---5-5---5---|-5-|
B|---6-6---8---10-10---8-|---6-6---6---|-6-|G|---7-7---9---10-10---9-|---7-7---5---|-7-|
D|-0-----2---3-------2---|-8-----7-----|---|
A|-----------------------|-----------5-|---|
E|-----------------------|-------------|---|

MelodyE|-----10--12-13-12-13-12-------|---------------------------|
B|---6--------------------13----|-10------8-10--10------8---|
G|-7-------------------------14-|----7-10----------7-10---9-|D|------------------------------|---------------------------|
A|------------------------------|---------------------------|
E|------------------------------|---------------------------|E|-----10--12-13-12-13-12-------|--------------------|
B|---6--------------------13----|-10------8-10--10---|
G|-7-------------------------14-|----7-10----------7-|
D|------------------------------|--------------------|A|------------------------------|--------------------|
E|------------------------------|--------------------|

Harmony
E|-------13-------13-15-17-15-17-15-------|B|----------------------------------17----|
G|----14-------14----------------------17-|
D|-15-------15----------------------------|
A|----------------------------------------|
E|----------------------------------------|...
tracking img