Socrates

Solo disponible en BuenasTareas
  • Páginas : 8 (1905 palabras )
  • Descarga(s) : 0
  • Publicado : 8 de mayo de 2011
Leer documento completo
Vista previa del texto
Choro No.1
Composer: Heitor Villalobos
Transcription by: Gian Piero Ciammariconi
giancian+classicalguitarhp@gmail.com
http://classicalguitarhp.wordpress.com
Release 2.0 (3/16/97)
Please report any errors so I can fix them immediately.

This is a transcription of the song Choro No.1 from Heitor Villalobos.
This is easier to play with the sheet music athand to see the rythm
but it's not essential. Please tell me if you find this useful.
Tablature explanation is at the end of the score.
The tempo for the song is 88 quarter notes per second.
The time signature is 2/4.
It starts in the key of G, but changes to C then to G, then to E and again
to G.

||--------3--|--2--2-----------3--|--2--0--------------|-------------------|----||-----5-----|--2--2--------4-----|--0--0-----------1--|--0--0-------------|----
||--4--------|--3--3-----4--------|--0--0--------0-----|--2--2-------------|----
||-----------|--------------------|-----------2--------|--1--1--------1/5--|----
||-----------|--------2-----------|--------------------|-----------0-------|----
||-----------|--2-----------------|--0-----3-----------|--2-----2----------|-------------------3--|--2--2-----------3--|--2--0--------0-----|-------------------
---0--------5-----|--2--2--------4-----|--0--0-----0-----3--|-------------------
---0-----4--------|--3--3-----4--------|--0--0--------------|-------------------
4--2--------------|--------------------|--------------------|-------------------------------------|--------2-----------|--------2-----------|-------------------
0-----0-----------|--2-----------------|--0-----------------|-------------------

------------0--3--|--2--0--0--3/7--|--7--5--7--5--10--7--|----------------------
3--3-----2--------|--2--2----------|--7--7--7--7---------|----------------------
0--0--------------|--0--0----------|--5--5--5--5---------|----------------------2--2--------------|----------------|---------------------|----------------------
0-----0-----------|--0-------------|--5--------5---------|----------------------
------------------|----------------|---------------------|----------------------

5--3--------------|--5--3--5--3--8--5--|--3--1--------------|-------------------
3--3--------------|--5--5--5--5--------|--1--1--------------|-------------------4--4--------------|--3--3--3--3--------|--2--2--------------|-------------------
------------------|--------------------|--------------------|-------------------
---------6--5--4--|--3--------3--------|--------3--4--3--2--|-------------------
3--3--3-----------|--------------------|--1--1--------------|-------------------

3--1--0--1--3--4--|--5p0-------------------|--------2--3--2----------|----------3--3--1--3--3-----|-------1----------------|-----2--------2--5p2-----|----------
1--1--0--1--1-----|----------2-------------|--3-----------3-------2--|----------
------------------|-------------2----------|-------------------------|----------
1--------1--------|--0-------------3p0-----|-------------------------|----------
------------------|---------------------3--|--2-----------2----------|------------------------7--------3--|--2--2-----------3--|--2--0--------------|-----------
4--0--4/7--7--------5-----|--2--2--------4-----|--0--0-----------1--|-----------
2----------------4--------|--3--3-----4--------|--0--0--------0-----|-----------
4-------------------------|--------------------|-----------2--------|-----------
2-------------------------|--------2-----------|--------------------|-------------------------------------|--2-----------------|--0-----3-----------|-----------

-----------------|-----------------3--|--2--2-----------3--|--------------------
0--0-------------|-----0--------5-----|--2--2--------4-----|--------------------
2--2-------------|-----0-----4--------|--3--3-----4--------|--------------------
1--1--------1/5--|--4--2--------------|--------------------|--------------------...
tracking img