Solo aterceros

Solo disponible en BuenasTareas
  • Páginas : 2 (396 palabras )
  • Descarga(s) : 0
  • Publicado : 7 de febrero de 2011
Leer documento completo
Vista previa del texto
pIntro:

e--------------------------------
B------0-----0---------0-----0---
G----0-----0-----0---0-----0----0D--2-----2-----2---1-----1----1--
A--------------------------------
E--------------------------------e-----------------------0------0-
B------0-----0--------0---0----0-
G----0-----0----0---0-------0--0-
D--0-----0----0----------------2-A-----------------4--------------
E--------------------------------

Bm
e---------------------
B---------------------G-4-44444444444-------
D-4-44444444444-------
A-2-22222222222-------
E---------------------

E AE B7
Tal vez no sucedió Tal vez esto sea una ilusión
E A
Tal vez sea una obra dramatúrgicaE
Con actores y tú eres la principal
B7 A C#m B
Y este de abajo es tu secundario Inició lafunción!

A B
¿Que pasará al final de este drama sexual?
A C#m B¿Valdrá la pena esperar al final?
A B
Me agrada sentir dolor Ven a contármelo.

Coro_: C#m BmAAAA x8

Que quiero escuchar el no! Quiero escuchar el no!
Pones tu cara de querer decir lo siento.
El te dejó sin aliento. Quiero...
tracking img