Solo por un beso para guitarra

Solo disponible en BuenasTareas
  • Páginas : 5 (1104 palabras )
  • Descarga(s) : 0
  • Publicado : 9 de enero de 2010
Leer documento completo
Vista previa del texto
e -----------------------|
B ----3-3-3-3-3-3-3-6-3-5|
G ----0------------------|
D -----------------------|
A 3----------------------|
E -----------------------|

e -----------------------|
B -----------------------|
G ----2-2-2-2-2-2-2-5-2-4|
D ----0------------------|
A -----------------------|
E 3----------------------|

e 15--0--13--0--12-0--10--0---15--0--13--0--12-0--10--0
B-----------------------------------------------------
G -----------------------------------------------------
D 14-14--14-14—14-14--12-12---14-14--14-14—14-14--12-12
A -----------------------------------------------------
E -----------------------------------------------------

e 15--0--13--0--12-0--10--0|
B -------------------------|
G -------------------------|
D14-14--14-14—14-14--12-12|
A -------------------------|
E -------------------------|

e -----0-----|
B ----1-1----|
G ---0---0---|
D --2-----2--|
A -3-------3-|
E 3---------3|

¡Hay una mujer!

e --------------------------7-8--8-8-8-8|
B ----------------------8-10-----5-5-5-5|
G ----------------7-9-10----------------|
D ----------7-9-10----------------------|
A ----7-8-10----------------------------|
E8-10----------------------------------|

Que domina mis sentidos con sólo tocar mi piel

e --10--8--7--5--3--1--3----5|
B ---------------------------|
G ---------------------------|
D 12--10--9--7--5--3--5--7-7-|
A ---------------------------|
E ---------------------------|

¡Y Cómo a mí también!

e --------------------|
B --------------------|
G –0-0-0-0-0-0-0-3-0-2|
D--------------------|
A --------------------|
E 1-------------------|

A otro hombre esto le puede suceder.

e ----------------------------------------------------|
B ---------------------------------------0-0-0-0-0-0-0|
G ----2-2-2-2-2-2-2-5-2-4-4-4-4-4-------0-0-0-3-0-0-0-|
D ----0--------------------------------3--------------|
A ------------------------------------5---------------|
E3----------------------------------3----------------|

C
Que sólo por un beso,
A 0-2-3-3
Am
Se puede enamorar,
e --12--10--8--7--5|
B -----------------|
G -----------------|
D 13--12--10--9--7-|
Dm
Sin necesidad de hablarse
e --12--10|
B --------|
G --------|
D 13--12--|
F
Sólo los labios rozarse,
e --12--10|
B --------|
G --------|
D13--12--|
F G
Cupido los flechará.
e --15--13--12--10--8|
B -------------------|
G -------------------|
D 16--14--13--12--10-|

C
Y sólo por un beso,
A 0-2-3-0-2-3-3-0-2-3|

E ------------|
B ---------0-1|
G ------0-2---|
D -0-2-3------|
A 3-----------|
E ------------|

Am
Con ella soy feliz,
e -5--3--1---------|
B ----------5--3--1|
G -----------------|
D7--5--3----------|
A ---------7--5--3-|

Dm
Sólo por un besito,
e -----|
B -5--3|
G -----|
D -----|
A 7--5-|
F
Me llevó al infinito
e -----|
B -5--3|
G -----|
D -----|
A 7--5-|
F G
Y ni siquiera la conozco bien.
e --15--13--12--10---8--7--5----10-11-12|
B --------------------------------------|
G--------------------------------------|
D 16--14--13--12--10---9--7-----12-13-13|

Am
Un beso significa amistad, sexo y amor
F
En cualquier parte del mundo no importa la religión
Dm F
Por un beso de su boca voy al cielo y hablo con dios
Dm G C C C
Alcanzo las estrellas de emoción.

CSu boca es tan sensual
e 15-15-15-15--13-13-13-13--12-12-12-12--10-10-10-10--8-8-8-8|
G
Me cautiva Y me excita no me canso de besar
e 15-15-15-15--13-13-13-13--12-12-12-12--10-10-10-10--8-8-8-8|
F
Su lengua es mi debilidad
e 15-15-15-15--13-13-13--12-12-12--10-10-10--8-8|
G
Ella sabe los truquitos díganme si hay alguien mas
e...
tracking img