Solo pr un beso

Solo disponible en BuenasTareas
  • Páginas : 6 (1351 palabras )
  • Descarga(s) : 0
  • Publicado : 22 de mayo de 2010
Leer documento completo
Vista previa del texto
SOLO POR UN BESO
e -----------------------|
B ----3-3-3-3-3-3-3-6-3-5|
G ----0------------------|
D -----------------------|
A 3----------------------|
E -----------------------|

e -----------------------|
B -----------------------|
G ----2-2-2-2-2-2-2-5-2-4|
D ----0------------------|
A -----------------------|
E 3----------------------|

e15--0--13--0--12-0--10--0---15--0--13--0--12-0--10--0
B -----------------------------------------------------
G -----------------------------------------------------
D 14-14--14-14—14-14--12-12---14-14--14-14—14-14--12-12
A -----------------------------------------------------
E -----------------------------------------------------

e 15--0--13--0--12-0--10--0|
B -------------------------|
G-------------------------|
D 14-14--14-14—14-14--12-12|
A -------------------------|
E -------------------------|

e -----0-----|
B ----1-1----|
G ---0---0---|
D --2-----2--|
A -3-------3-|
E 3---------3|

¡Hay una mujer!
e --------------------------7-8--8-8-8-8|
B ----------------------8-10-----5-5-5-5|
G ----------------7-9-10----------------|
D ----------7-9-10----------------------|
A----7-8-10----------------------------|
E 8-10----------------------------------|

Que domina mis sentidos con sólo tocar mi piel
e --10--8--7--5--3--1--3----5|
B ---------------------------|
G ---------------------------|
D 12--10--9--7--5--3--5--7-7-|
A ---------------------------|
E ---------------------------|
¡Y Cómo a mí también!
e --------------------|
B --------------------|
G–0-0-0-0-0-0-0-3-0-2|
D --------------------|
A --------------------|
E 1-------------------|
A otro hombre esto le puede suceder.
e ----------------------------------------------------|
B ---------------------------------------0-0-0-0-0-0-0|
G ----2-2-2-2-2-2-2-5-2-4-4-4-4-4-------0-0-0-3-0-0-0-|
D ----0--------------------------------3--------------|
A------------------------------------5---------------|
E 3----------------------------------3----------------|
C
Que sólo por un beso,
A 0-2-3-3
Am
Se puede enamorar,
Dm
Sin necesidad de hablarse
F
Sólo los labios rozarse,
F G
Cupido los flechará.
C
Y sólo por un beso,
Am
Con ella soy feliz,
Dm
Sólo por un besito,F
Me llevó al infinito
F G
Y ni siquiera la conozco bien.
Am
Un beso significa amistad, sexo y amor
F
En cualquier parte del mundo no importa la religión
Dm F
Por un beso de su boca voy al cielo y hablo con dios
Dm G C C C
Alcanzo las estrellas deemoción.

C
Su boca es tan sensual
G
Me cautiva Y me excita no me canso de besar
F
Su lengua es mi debilidad
G
Ella sabe los truquitos díganme si hay alguien mas

C
Que sólo por un beso,
Am
Se puede enamorar,

Dm
Sin necesidad de hablarse
F
Sólo los labiosrozarse,
F G
Cupido los flechará.

C
Y sólo por un beso,
Am
Con ella soy feliz,
Dm
Sólo por un besito,
F
Me llevó al infinito

F G
Y ni siquiera la conozco bien.

Am
Un beso significa amistad, sexo y amor
F
En cualquier parte del mundo no importa la religiónDm F
Por un beso de su boca voy al cielo y hablo con dios
Dm G
Alcanzo las estrellas de emoción.

SU VENENO
E|-12-12-12-12s10--10-10s8--8-|-10s12----12-12-12-12s10--10-10s8--8-
B|----------------------------|-------------------------------------
G|----------------------------|-------------------------------------...
tracking img