Suscripcion

Solo disponible en BuenasTareas
  • Páginas : 6 (1332 palabras )
  • Descarga(s) : 0
  • Publicado : 13 de marzo de 2012
Leer documento completo
Vista previa del texto
Keep it real
INTRO

e|---------------------------------------------------------------------
B|---------------------------------------------------------------------
G|----------7----------------------------------------------------------D|------7/9---9-7-9|------5--4-5-4|------------7-5-4|--------4--4/5\4|-
A|--7-7|--------------3-3----------5|------5/7-------5|--2-2|----------
E|-------------------------------------3-3-----------------------------

guitar 1
e|---------------------------------------------------------------------B|---------------------------------------------------------------------
G|----------7----------------------------------------------------------
D|------7/9---9-7-9|------5--4-5-4|------------7-5-4|--------4--4/5\4|- 2x
A|--7-7|--------------3-3----------5|------5/7-------5|--2-2|----------
E|-------------------------------------3-3-----------------------------guitar 2

e|---------------------------------------------------------------------
B|---------------------------------------------------------------------
G|--9|----------------5----------------------------------7|------------
D|--9|----------------5|---------------5|----------------7|------------A|--7|----------------3|---------------5|----------------5|------------
E|-------------------------------------3-------------------------------

e|---------------------------------------------------------------------------------B|---------------------------------------------------------------------------------
G|--9|----------------5-------------------------------------------------9|---------
D|--9|----------------5|---------------5|----------------9|-------------9|---------
A|--7|----------------3|---------------5|----------------9|-------------7|---------E|-------------------------------------3|----------------7-------------------------



e|-------------------
B|-------------------
G|--9-9-9|-----------
D|--9-9-9|-----------
A|--7-7-7|-----------
E|-------------------

VERSEe|-------------------------------------------------------------
B|-------------------------------------------------------------
G|--9---9-x-x-9-9-x---9---9-x-x-9-9---9---9-x-x-9-9|-5|----7|--
D|--9---9-x-x-9-9-x---9---9-x-x-9-9---9---9-x-x-9-9|-5|----7|-- 2x
A|--7---7-x-x-7-7-x---7---7-x-x-7-7---7---7-x-x-7-7|-3|----5|--E|-------------------------------------------------------------


CHORUS

e|---------------------------------------------------------------------
B|---------------------------------------------------------------------G|--9|----------------5----------------------------------7|------------
D|--9|----------------5|---------------5|----------------7|------------
A|--7|----------------3|---------------5|----------------5|------------
E|-------------------------------------3-------------------------------

e|---------------------------------------------------------------------...
tracking img