Tab de one

Solo disponible en BuenasTareas
  • Páginas : 10 (2348 palabras )
  • Descarga(s) : 0
  • Publicado : 10 de febrero de 2011
Leer documento completo
Vista previa del texto
One
MetallicA
And Justice for all...

[ intro ]
[ begins with gunfires and battlefield sound for a few seconds.. ]

Bm Gmaj7(no3rd) Bm Gmaj7(no3rd)
|--------------|--------------|--------------|-------------------|

|--------------|--------------|--------------|-------------------||--------------|--------------|--------------|----------------0--|
|-----4-----0--|-----4-----0--|-----4-----0--|-----4-----0-------|
|--2-----2-----|--------------|--2-----2-----|-------------------|
|--------------|--3-----3-----|--------------|--3-----3----------|

D/A Gmaj7(no3rd)
|--------------|--------------|--------------|-------------------||--------------|--------------|--------------|-------------------|
|-(0)----------|--------------|--------------|-------------------|
|-----4-----0--|-----4-----0--|-----4-----0--|-------------------|
|--2-----2-----|--0-----0-----|--------------|-----2-----2-------|
|--------------|--------------|--3-----3-----|--0-----2----------|

Bm Gmaj7(no3rd) Bm
|--------------|--------------|--------------|-------------------||--------------|--------------|--------------|-------------------|
|*-------------|--------------|--------------|--------------0----|
|*----4-----0--|-----4-----0--|-----4-----0--|-----4-----0-------|
|--2-----2-----|--------------|--2-----2-----|-------------------|
|--------------|--3-----3-----|--------------|--3-----3----------|

D/AGmaj7(no3rd) [1. N.C ]
|--------------|--------------|--------------|-------------------|
|--------------|--------------|--------------|-------------------|
|--------------|--------------|--------------|------------------*|
|-----4-----0--|-----4-----0--|-----4-----0--|------------------*|
|--2-----2-----|--0-----0-----|--------------|-----2-----2-------||--------------|--------------|--3-----3-----|--0-----2----------|

[2. N.C ] Bm Gmaj7(no3rd)
|---------------------------|----------------------|-----------------------|
|---------------------------|----------------------|-----------------------|
|---------------------------|----------------------|-----------------------||---------------------------|-----4-----0--0--4----|-----4-----0--4--4--0--|
|-----2-----2-----2--2h4--2-|--2-----2-----------0-|-----------------------|
|--0-----2-----0------------|----------------------|--3-----3--------------|

Bm Gamj7 Bm
|-----------------------|-----------------------|-----------------------||-----------------------|-----------------------|-----------------------|
|-----------------------|-----------------------|-----------------------|
|-----4-----0--0--4-----|-----4-----0--4--4--0--|-----4-----0--0--4--0--|
|--2-----2-----------0--|-----------------------|--2-----2--------------|
|-----------------------|--3-----3--------------|-----------------------|

D/A Gamj7 (Em)|-----------------------|-----------------------|-------------------|
|-----------------------|-----------------------|-------------------|
|--------------------0--|-(0)-------------------|-------------------|
|-----4-----0--4--4-----|-----4-----0--0--4--0--|-----2h4--2--------|
|--0-----0--------------|-----------------------|----------------4--||-----------------------|--3-----3--------------|--0----------2-----|


G5 A5 (D) Riff A (G)
|-----------------------|-----------------------|------------------------|
|-----------------------|-----------------------|-----0h3p0----0h3p0-----|
|-----------------------|*--------0--7-----0----|------------4--------0--|
|---------0-------------|*-----7--------7-------|--5---------------------|...
tracking img