Tab warlock

Solo disponible en BuenasTareas
  • Páginas : 5 (1026 palabras )
  • Descarga(s) : 0
  • Publicado : 10 de marzo de 2012
Leer documento completo
Vista previa del texto
Intro
Riff 1 (guitar 1)
PM PM PM PM PM PM PM
E E E E E E E E Q E E E E E E E E E E E E E |------------------------|------------------------|-------------------------||------------------------|------------------------|-------------------------|
|-------------8-----7----|------------------------|--------------8-----7----|
|----5--8--5--8--5--7--5-|--L---------------------|-----5--8--5--8--5--7--5-|
|----5--8--5-----5-----5-|--L---------------------|-----5--8--5-----5-----5-|
|----------------------3-|--L----3--3--3--3--3--3-|--3--------------------3-|PM PM PM PM
Q E E E E E E E E E E E E E E
------------------------------|--------------------------|
------------------------------|--------------------------|
-------------------10g12--10--|--L-----------8-----7-----|--L----------------10g12--10--|--L--5--8--5--8--5--7--5--|
--L-----------------8g10---8--|--L--5--8--5-----5-----5--|
--L----3--3--3--3-------------|-----------------------3--|
PM PM PM PM PM PM PM
Q E E E E E E E E E E E E E E-------------------------|--------------------------|
-------------------------|--------------------------|
-------------------------|--------------8-----7-----|
--L----------------------|-----5--8--5--8--5--7--5--|
--L----------------------|-----5--8--5-----5-----5--|
--L----3--3--3--3--3--3--|--3--------------------3--|
PM PM PM PMQ E E E E E E H. Q
------------------------------|----------------------|
------------------------------|----------------------|
-------------------10g12--10--|----------------------|--L----------------10g12--10~-|--L-------------------|
--L-----------------8g10--8~--|--L-------------------|
--L----3--3--3--3-------------|---------------15\----|

Intro (guitar 2)
---------------------------|---------------------|
---------11--13b--L--------|---------------------|-----12--------------------|--12~----------------|
---------------------------|---------------------|
---------------------------|---------------------|
---------------------------|---------------------|
Q. Q E E E E H E Q E H. E--------------------------|--------------------------|-----------------------|
---------11----10---------|--------------11--13br----|--L--L------------18b--|
--L---------------10--12--|--L--L--------------------|-----------------------|
--------------------------|--------------------------|-----------------------|
--------------------------|--------------------------|-----------------------|--------------------------|--------------------------|-----------------------|

Riff 2 (verse) x2
H. E E W
---------------------|-------------------|
---------------------|-------------------|
------------------8--|--L----------------|...
tracking img