Tablatura de dream on

Solo disponible en BuenasTareas
  • Páginas : 6 (1424 palabras )
  • Descarga(s) : 0
  • Publicado : 28 de marzo de 2011
Leer documento completo
Vista previa del texto
1st PART

e+-4-----4----|-3-----3----|-4-----4----|-3-----3----|
B+-6-----6----|-4-----4----|-3-----3----|-2--1--2--1-|
G+----5-----5-|----5-----5-|----5-----5-|------------|
D+------------|------------|------------|------------|
A+------------|------------|------------|------------|E+------------|------------|------------|------------|

|-4-----4----|-6-----6----|--8-----8----|--8---------|
|-6-----6----|-8-----8----|--9-----9----|--9---------|
|----5-----5-|----5-----5-|-------------|--10--------|
|------------|------------|----10----10-|--10--------||------------|------------|-------------|------------|
|------------|------------|-------------|------------|

|-4-----4----|-3-----3----|--4-----4----|-3-----3----|
|-6-----6----|-4-----4----|--3-----3----|-2--1--2--1-|
|----5-----5-|----5-----5-|-----5-----5-|------------||------------|------------|-------------|------------|
|------------|------------|-------------|------------|
|------------|------------|-------------|------------|

|-4-----4----|-6-----6----|--8-----8----|--6---4---6-|
|-6-----6----|-6-----6----|--6-----6----|--6---6---6-|
|----5-----5-|----5-----5-|-------------|------------||------------|------------|-------------|------------|
|------------|------------|-------------|------------|
|------------|------------|-------------|------------|

|--8-----8----|-8/-6---6---|------------|------------|
|--9-----9----|-8/-6---6---|------------|------------||-------------|------------|-6--5--6--5-|-6--5--6--5-|
|-------------|------------|------------|------------|
|-------------|------------|------------|------------|
|-------------|------------|------------|------------|


Solo 1:|-----------------|---------------------|---------------------------|
|-----------5-6-8-|-6-8-9-8-9-11-9h11p9-|-8h9p8-6h8p6-4h6p4--2-1/13-|
|-6-5-3h5h6-------|---------------------|---------------------------|
|-----------------|---------------------|---------------------------|
|-----------------|---------------------|---------------------------||-----------------|---------------------|---------------------------|

repeat until last time:
|-4-----4----|-3-----3----|-4-----4----|-3-----3----|
|-6-----6----|-4-----4----|-3-----3----|-2--1--2--1-|
|----5-----5-|----5-----5-|----5-----5-|-----------*||------------|------------|------------|-----------*|
|------------|------------|------------|------------|
|------------|------------|------------|------------|

last time play this:
|-4-----4----|-3-----3----|-4-----4----|-3-----3----|
|-6-----6----|-4-----4----|-6-----6----|-6-----6----||----5-----5-|----5-----5-|----5-----5-|----5-----5-|
|------------|------------|------------|------------|
|------------|------------|------------|------------|
|------------|------------|------------|------------|

|------------|------------|
|------------|------------|
|-6--5--6--5-|-6--5--6--5-|...
tracking img