Tablatura de quien fuera

Solo disponible en BuenasTareas
  • Páginas : 5 (1193 palabras )
  • Descarga(s) : 0
  • Publicado : 8 de noviembre de 2011
Leer documento completo
Vista previa del texto
Intro

E-|-----------------------------------------------------------------
B-|---------3--------3----------------------3--------3--------------
G-|-------0--------0----0--------2--------0--------0----0--------2--
D-|-----4--------4--------4-2-2--4------4--------4--------4-2-2--4--
A-|-----------------------------------------------------------------E-|--3--------3----------------------3------------------------------

E-|--------------------------------------------------------0-----2------
B-|--------3-----3------------3-----3--------3-------3---3-----3---3----
G-|------0-----0---0----0---0-----0--------0---0---0---0-----0-------2--
D-|----4-----4------------4-----4--------4-------4----------------------A-|--3----------------0----------------2--------------------------------
E-|---------------------------------------------------------------------

E-|--------2-0---3-2-020---------------
B-|------3-----3---------3---0---------
G-|----0-------------------2---0-------
D-|--------------0---------------------
A-|-3----------------------------------
E-|------------------------------------


Estoy buscando una palabraE-|--------------------------------------------------------------
B-|----------3------------3--------------------------------------
G-|----0---0---0----0---0---0---------------0---2-0---0-----------
D-|------4------------4-------4-2---2-0-2-4---4-----4---2-0------
A-|--------------------------------------------------------------
E-|--3------------3----------------------------------------------

En el umbral de tumisterio
E-|------------------------------------------------------------------
B-|----------3------------3-----------------------------1-0----------
G-|----0---0---0----0---0---0---------------0---2-0---0-----2-0------
D-|------4------------4-------4-2---2-0-2-4---4-----4-----------2-0--
A-|------------------------------------------------------------------E-|--3------------3--------------------------------------------------

Quien fuera Ali Baba Quien fuera el mitico Simbad
E-|------------------------------------------------------------
B-|---------3----------3------------3-------------3------------
G-|-------0------0---0--------0---0----0----0---0----0---------
D-|-----4-----4----4------------4-------------4-----------------A-|--3--------------------3-0-------------0---------------------
E-|-------------------------------------------------------------

Quien fuera un poderoso sortilegio Quien fuera encantador
E-|-------------0-------------0-------------0------------------2------
B-|--------3-------------3-------------3------------------3-----------
G-|------0----0--------0----0--------0----0-------------2----2--------D-|----4-------------4-------------4------------------0---------------
A-|--2-------------2-------------3------------------------------------
E-|-------------------------------------------------2-----------------

E-|------------------------------------------------------------------------
B-|---------3---------3----------------------------------------------------G-|-------0---------0----0--------------0---2-0---0------------------------
D-|-----4---------4--------4-22-2-0-2-4---4-----4---2-0--------------------
A-|------------------------------------------------------------------------
E-|--3---------3-----------------------------------------------------------

E-|------------------------------------------------------------------------B-|----------3-------------3-----------------------------------------------
G-|----0---0----0----0---0----0--------------0---2-0---0-------------------
D-|------4-------------4--------4-22-2-0-2-4---4-----4---2-0---------------
A-|------------------------------------------------------------------------
E-|--3-------------3-------------------------------------------------------

E-|------------------------------------------------------------------------...
tracking img