Tablatura master of puppets

Solo disponible en BuenasTareas
  • Páginas : 5 (1135 palabras )
  • Descarga(s) : 0
  • Publicado : 20 de septiembre de 2010
Leer documento completo
Vista previa del texto
MASTER OF PUPPETS

Written and performed by Metallica

Tab symbols used:
p - pull off
h - hammer on ) )
/ or - slide / - bend / - bend and release
vib - vibrato
x - rake

E5 D5 Db5 C N.C.(Em)
PM..............
e |----------------|---------------|---------------|---------------------|
B|----------------|---------------|---------------|---------------------|
G |9---------------|7---6---5------|---------------|.--------------------|
D |9---------------|7---6---5------|---------------|.--------------------|
A |7---------------|5---4---3------|---------------|---------------------|
E |0---------------|---------------|---------------|-0-0-0-12-0-0-11--0-0|D Db C N.C.(Em) Play 4 times
PM.............................
e |-----------------|---------------|-----------------|
B |7---6---5--------|---------------|-----------------|
G |7---6---5--------|---------------|----------------.|
D |7---6---5--------|---------------|----------------.|
A|5---4---3--------|---------------|-----------------|
E |-----------------|0-0-7-0-0-6-0-0|5-0-4-0-3-0-2-0--|

N.C.
PM...............................................
e |-----------------|----------------|----------------|-----------------|
B |-----------------|----------------|----------------|-----------------|
G |.----------------|----------------|----------------|----------------.|
D|.----------------|----------------|----------------|----------------.|
A |-----2-----3-----|4-----3-----2-2-|----2-----3-----|54---54---54--|
E |-0-1---0-1---0-1-|--0-1---0-1-----|0-1---0-1---1-0-|32-0-32-0-32--|

RhyFig0
N.C. B5
PM.............................................................
e|-----------------|----------------|----------------|----------------|
B |-----------------|----------------|----------------|----------------|
G |.----------------|----------------|----------------|------------4---|
D |.----------------|----------------|----------------|------------4---|
A |-----2-----3-----|4-----3-----2-2-|----2-----3-----|4-----3-----2---|
E|-0-1---0-1---0-1-|--0-1---0-1-----|0-1---0-1---0-1-|--0-1---1-0-----|

N.C.
PM...............................................
e |----------------|----------------|----------------|-----------------|
B |----------------|----------------|----------------|-----------------|
G |----------------|----------------|----------------|----------------.|
D |----------------|----------------|----------------|----------------.|
A|----2-----3-----|4-----3-----2-2-|----2-----3-----|54---54---54--|
E |0-1---0-1---0-1-|--0-1---0-1-----|0-1---0-1---1-0-|32-0-32-0-32--|

end
RhyFig0 RhyFig1
E5 N.C.(Em)
w/ Fill 1 PM..............
e|----------------|---------------|---------------|-----------------|
B |----------------|---------------|---------------|-----------------|
G |----------------|---------------|---------------|.----------------|
D |----------------|2--------------|---------------|.----------------|
A |54---54---54-|2--------------|---------------|-----------------|
E |32-0-32-0-32-|0--------------|---------------|-0-0-0-0-0-0-0-0-|end RhyFig1
PM PM.................
e |----------------|----------------|-----------|
B |----------------|----------------|-----------|
G |----------------|----------------|----------.|
D |----------------|----------------|----------.|
A |--5/7---87-5/7-|----------------|--5/7-5/7--|
E |0-3/5-0-65-3/5-|0-0-0-0-0-0-0-0-|0-3/5-3/5--|...
tracking img