Tablatura nothing else matters

Solo disponible en BuenasTareas
  • Páginas : 2 (349 palabras )
  • Descarga(s) : 0
  • Publicado : 11 de marzo de 2012
Leer documento completo
Vista previa del texto
Nothing Else Matters

|-----------0--------|-----------0--------|-----------0--------||--------0-----0-----|--------0-----0-----|--------0-----0-----|
|-----0-----------0--|-----0-----------0--|-----0-----------0--|
|--------------------|--------------------|--------------------||--------------------|--------------------|--------------------|
|--0-----------------|--0-----------------|--0-----------------||-----------0-----7--|--7--------7p0-------|--------7--8--7h87\5-|--7--5/2------|
|--------0-----0-----|-----0-----0---0-----|--0-----0--0---------|--0--------5--||-----0--------------|--------0---------0--|-----0---------------|--------------|
|--------------------|---------------------|---------------------|--------------||--------------------|---------------------|---------------------|--------------|
|--0-----------------|--0------------------|--0------------------|--------------||-----------2p0-------|-----------0--0--0--|--0----------3p0-----0--|
|--5-----5------5-----|--------5-----5--5--|--5------5-------5---5--||-----5------------5--|-----5--------5--5--|--5----5---5-------5-5--|
|---------------------|--------------------|------------------------||--0------------------|--0-----------0--2--|--3--3---------------3--|
|---------------------|--------------------|------------------------|N.H.......
|--0----------0h5p0---------|-------------12--------|-----------0--------|
|--7------7---------7p0-0h5-|-----12--12------0-----|--------0-----0-----|...
tracking img