Tablatura para guitarra canon

Solo disponible en BuenasTareas
  • Páginas : 5 (1199 palabras )
  • Descarga(s) : 0
  • Publicado : 24 de noviembre de 2011
Leer documento completo
Vista previa del texto
Tablatura canon

1er gutiarra
E :----------------|----------------|----------------|----------------|
B :----------------|----------------|----------------|----------------|
G :------7---------|------4---------|--------------7-|----------------|
D:--4-7---------7-|--0-4---------4-|------5---4-7---|------5-------7-|
A :5---------4-7---|2---------0-4---|--2-5---5-------|--2-5-----4-7---|
E :--------5-------|--------2-------|3---------------|3-------5-------|

2da guitarra
E :2-------0-------|2---------------|----------------|--------0-------|
B:3-------2-------|3-------2-------|3-------3-------|3-------2-------|
G :2-------2-------|4-------2-------|4-------2-------|4-------2-------|
D :0-------2-------|4-------4-------|5-------4-------|5-------2-------|
A :--------0-------|2-------x-------|x-------0-------|x-------0-------|
E :----------------|--------2-------|3---------------|3---------------|3era gutiarra
E :----------------|----------------|----------------|----------------|
B :----------------|----------------|----------------|----------------|
G :----------------|----------------|----------------|----------------|
D:----------------|----------------|----------------|----------------|
A :----------------|----------------|----------------|----------------|
E :----------------|----------------|----------------|----------------|

=======================================================================
1era guitarra
E:----------------|----------------|----------------|----------------|
B :----------------|----------------|----------------|----------------|
G :------7---------|------4---------|--------------7-|----------------|
D :--4-7---------7-|--0-4---------4-|------5---4-7---|------5-------7-|
A :5---------4-7---|2---------0-4---|--2-5---5-------|--2-5-----4-7---|E :--------5-------|--------2-------|3---------------|3-------5-------|

2da guitarra
E :2-------0-------|2---------------|----------------|--------0-------|
B :3-------2-------|3-------2-------|3-------3-------|3-------2-------|
G :2-------2-------|4-------2-------|4-------2-------|4-------2-------|D :0-------2-------|4-------4-------|5-------4-------|5-------2-------|
A :--------0-------|2-------x-------|x-------0-------|x-------0-------|
E :----------------|--------2-------|3---------------|3---------------|

3era guitarra
E:2-------0-------|----------------|----------------|----------------|
B :----------------|3-------2-------|0---------------|0-------2-------|
G :----------------|----------------|--------2-------|----------------|
D :----------------|----------------|----------------|----------------|
A :----------------|----------------|----------------|----------------|
E:----------------|----------------|----------------|----------------|

=======================================================================
1era guitarra
E :----------------|----------------|----------------|----------------|
B :----------------|----------------|----------------|----------------|
G...
tracking img