Tablatura trivium

Solo disponible en BuenasTareas
  • Páginas : 8 (1814 palabras )
  • Descarga(s) : 0
  • Publicado : 13 de diciembre de 2010
Leer documento completo
Vista previa del texto
Tuning:E,A,D,g,b,e

Right ive decided to tab this cus i saw it on scuzz and thoght it was awesome :P
and the other tabs werent too good, i wonder if mine will be any better!

Intro
e|-----------------------------------------------------------------------|
B|-----------------------------------------------------------------------|G|-----9----10-----7---9-----4h5p4\2-----9----10-----4-4-----2-----------|
D|-----10---10-----9---9-----5----\2-----10---10-----5-5-----3-----------|
A|-0-0----0----0-0---0---0-0---------0-0----0----0-0------------0-0---0--|
E|------------------------------------------------------------------3----|
|
|
e|-----------------------------------------------------------------------|B|-----------------------------------------------------------------------|
G|-2---------------------------------2-----------------------------------|
D|-2---------------------------------2---------------5----------------2--|
A|-0---------------------------------0---------------5----------------0--|
E|---------------------------------------------------3-------------------|

e|-----------------------------------------------------------------------|B|-----------------------------------------------------------------------|
G|-----9----10-----7---9-----4-5-4---------------------------------------|
D|-----10---10-----9---9-----5-5-5--3--------------5---------------------|
A|-0-0----0----0-0---0---0-0--------3--------------5---------------------|
E|----------------------------------1--------------3---------------------|
|
|e|-----------------------------------------------------------------------|
B|-----------------------------------------------------------------------|
G|-----------------------------------------------------------------------|
D|-2---------------------------------------------------------------------|
A|-0--------------------------------3--------------5---------------------|E|----------------------------------1--------------3---------------------|

e|----------|-3b-----3---5-7b-5h7p5----------------------------------|
B|----------|----------5------------6----------------------8b10------|
G|--2*~~~~~-|-----------------------------5---5-7~-5-5-7-5-----------|
D|----------|-------------------------7-7---7------------------------|A|----------|--------------------------------------------------------|
E|----------|--------------------------------------------------------|

e|--8p5---5------------------------------------|
B|------8---8p5---5----------------------------|
G|--------------7---7p5--7b9-7b9r7-5-----------|
D|-----------------------------------7-5*~~~~~-|
A|---------------------------------------------|
E|---------------------------------------------|e|---------------|--------------------------X2|--------------|
B|---------------|----------------------------|--------------|
G|---------------|----------------------------|--------------|
D|--7--5--3~-----|--3--5---7-7\5/7---------5--|--3--7--2--9--|
A|--7--5--3~-----|--3--5---7-7\5/7---------5--|--3--7--2--9--|
E|--5--3--1~-----|--1--3---5-5\3/5-5555555-3--|--1--5--0--7--|Pre-Chorus
|----------------------------------------------X2|
|------------------------------------------------|
|------5-5p4---------5-5p4--------5-5p4----------|
|-2------------5------------2-----------2-5-7-9--|
|-0-0-0------0-3-3-3------0-0-0-0-------0-3-5-7--|
|------------------------------------------------|

e|-----------------------------------------------------------------------|B|-----------------------------------------------------------------------|
G|-----9----10-----7---9-----4h5p4\2-----9----10-----4-4-----2-----------|
D|-----10---10-----9---9-----5----\2-----10---10-----5-5-----3-----------|
A|-0-0----0----0-0---0---0-0---------0-0----0----0-0------------0-0---0--|
E|------------------------------------------------------------------3----|
|
|...
tracking img