Tablatura y plan de vida

Solo disponible en BuenasTareas
  • Páginas : 9 (2004 palabras )
  • Descarga(s) : 0
  • Publicado : 9 de noviembre de 2010
Leer documento completo
Vista previa del texto
In transit albert hammond jr

Part 1...

Guitar 1: e|----------8--------------------8--------|
B|----10---------10--------10---------10--|
G|-11----11---11----11--11----11---11-----|
D|----------------------------------------|A|----------------------------------------|
E|----------------------------------------|

Guitar 2: e|----11----13----11----11---|
B|-10----10----10----10------|
G|---------------------------| (x3)
D|---------------------------|A|---------------------------|
E|---------------------------|

e|----11----15----13----11---|
B|-10----10----10----10------|
G|---------------------------| (x1)
D|---------------------------|A|---------------------------|
E|---------------------------|

Part 2...

Guitar 1: e|-11-s-18--15--13--15--11---|
(tremelo) B|---------------------------|
G|---------------------------| (x2)
D|---------------------------|A|---------------------------|
E|---------------------------|

e|-11-s-18--15--13--15---13--|
B|---------------------------|
G|---------------------------|
D|---------------------------|
A|---------------------------|E|---------------------------|

Meanwhile....Guitar 2 bashes the fuck outa D...

e|--2--|
B|--3--|
G|--2--|
D|--0--|
A|-----|
E|-----|

Order: Part 1Part 2
Part 1
Part 2 (along with Guitar 2's riff from part 1)







Intro: D A G D
D A G D

D
Free from itall
G
I’m not gonna change till I want to
D
And I’m free from it all
G
I’m not gonna change till I want to

To Chorus: Em A

D BmBy the way she looked, I should’ve calmed down
Em
I went too far
C#dim
Oh, that’s all I’ve got to say

D Bm
By the way she looked, I should’ve calmed down
Em
I went too farC#dim
Oh, that’s all I’ve got to say

Back to Verse: D A G D
D A G D

D
Free from it all
G
I’m not gonna change till I want to
D...
tracking img