Tablatura

Solo disponible en BuenasTareas
  • Páginas : 5 (1053 palabras )
  • Descarga(s) : 0
  • Publicado : 17 de febrero de 2011
Leer documento completo
Vista previa del texto
Esta es la versión acústica del tema, esta
muy buena, pero hay que escucharla
muy bien para poder sacarla como es.
Tiene un par de arreglos porque hay
partes
en las que es muy
difícil encontrar
las notas que
se tocan así que hay que escucharmuy bien el tema para imaginarse como se
tocan esos arreglos.


e---0--0--0--0----0-------4---------------------------------------------------
B----55-55-55-55--5---5-6---6-5-3-6-5-3---5-3------3-2------2---------------
G---------------------------------------6------6-3------3-2----3-2-0-3-2-0-3D-------------------------------------------------------------------
A--7------------------------------------------------------------------------
E5--------------------------------------------------------------------------


La5
e--0-0-0-
B--0-0-0-G--5-5-5-
D--5-5-5-
A--0-0-0-
E--------

e-----0/10---------------------------------------------------------
B-1-3-------3-1-0--0-1-3-1-0-10------------------------------------
G--------------------------------2--0-------------------------------D-------------------------------------3-2--2-3-0--3-2-0-------------
A-------------------------------------------------------3-2-3/5-----
E---------------------------------------------------------------3---

Esta es la parte de los violines
intercalada con las partes en las
que se tocan los punteose----------------7-8-10-----------------------5-7-8-7-5-----5-------
B----10-10-10-10--------8-8-8-10-12-10-10---5-----------8-6---8-6-5-
G-9-----------------------------------------------------------------
D-------------------------------------------------------------------A-------------------------------------------------------------------
E-------------------------------------------------------------------

e--------------7-8-10------10----------------3-----------------------
B--10-10-10-10--------8-8-8--12-10-3-5-6-5--6-5-3-6-5-3-5-3------3---
G9---------------------------------------------------------6-5-6---6-D--------------------------------------------------------------------
A--------------------------------------------------------------------
E--------------------------------------------------------------------

e12-12-13-12-15-13-12---------------10-10-------12-10-8-------B--------------------15-13-12-12-13------13-13--13-12-10121312
G-------------------------------------------------------------1412
D------------------------------------------------------------------
A------------------------------------------------------------------
E------------------------------------------------------------------e--12-12-13-12-15-13-12-------------------------
B------------------------15-13-12-12-10-----10--
G---------------------------------------12------
D-----------------------------------------------
A-----------------------------------------------
E-----------------------------------------------...
tracking img