Tablaturas de guitarra de examen

Solo disponible en BuenasTareas
  • Páginas : 10 (2476 palabras )
  • Descarga(s) : 0
  • Publicado : 17 de noviembre de 2011
Leer documento completo
Vista previa del texto
Highway To Hell

Verse x6
E|------------------------------|------------------------------|
B|------------------------------|------------------------------|
G|------------------------------|------------------------------|D|------------------------------|------------------------------|
A|-7-7-7----5-5-5-----5-5-5-----|-5-5-5---5----7-7-------------|
E|-5-5-5----2-2-3-----2-2-3-----|-2-2-3---2----5-5-------------|


Pre-chorus
My friends are gonna be there, too…
E|------------------------------|------------------------------|B|------------------------------|------------------------------|
G|-0----0----0----0----0----0---|-0----0----0----0----0----0---|
D|-2----2----2----2----2----2---|-2----2----2----2----2----2---|
A|-2----2----2----2----2----2---|-2----2----2----2----2----2---|E|-0----0----0----0----0----0---|-0----0----0----0----0----0---|


Chorus
Highway to hell…
E|-------------2---2-2-2-3----2-|-------------2---2-2-2-3----2-|
B|-2----2----2-3---3-3-3-0----3-|-2----2----2-3---3-3-3-0----3-|
G|-2----2----2-2---2-2-2-0----2-|-2----2----2-2---2-2-2-0----2-|D|-2----2----2-----------0------|-2----2----2-----------0------|
A|-----------------------2------|-----------------------2------|
E|-----------------------3------|-----------------------3------|


E|-------------2---2-2-2-3----2-|-------------2----------------|B|-2----2----2-3---3-3-3-0----3-|-2----2----2-3----------------|
G|-2----2----2-2---2-2-2-0----2-|-2----2----2-2----------------|
D|-2----2----2-----------0------|-2----2----2------------------|
A|-----------------------2------|------------------------------|
E|-----------------------3------|------------------------------|


Versex4
E|------------------------------|------------------------------|
B|------------------------------|------------------------------|
G|------------------------------|------------------------------|
D|------------------------------|------------------------------|A|-7-7-7----5-5-5-----5-5-5-----|-5-5-5---5----7-7-------------|
E|-5-5-5----2-2-3-----2-2-3-----|-2-2-3---2----5-5-------------|


Pre-chorus
E|------------------------------|------------------------------|
B|------------------------------|------------------------------|G|-0----0----0----0----0----0---|-0----0----0----0----0----0---|
D|-2----2----2----2----2----2---|-2----2----2----2----2----2---|
A|-2----2----2----2----2----2---|-2----2----2----2----2----2---|
E|-0----0----0----0----0----0---|-0----0----0----0----0----0---|

Chorus
Highway to hell…E|-------------2---2-2-2-3----2-|-------------2---2-2-2-3----2-|
B|-2----2----2-3---3-3-3-0----3-|-2----2----2-3---3-3-3-0----3-|
G|-2----2----2-2---2-2-2-0----2-|-2----2----2-2---2-2-2-0----2-|
D|-2----2----2-----------0------|-2----2----2-----------0------|
A|-----------------------2------|-----------------------2------|...
tracking img