Tablaturas de molinos de viento.

Solo disponible en BuenasTareas
  • Páginas : 6 (1424 palabras )
  • Descarga(s) : 0
  • Publicado : 30 de enero de 2012
Leer documento completo
Vista previa del texto
Violin
-----------------------repite----------------------------
e|-15-15-15-15-15-15-15-17-15-15-15-15-----15-15-15-15----|
B|-------------------------------------19--------------17-|
G|--------------------------------------------------------|
D|--------------------------------------------------------|
A|--------------------------------------------------------|E|--------------------------------------------------------|

|-15-15-15-15-15-15-15-17-15-15-15-15-----15-15-15-15-----14-14-14-14-14-14-17-14-14-14-14-|
|-------------------------------------19--------------15-----------------------------------|
|------------------------------------------------------------------------------------------||------------------------------------------------------------------------------------------|
|------------------------------------------------------------------------------------------|
|------------------------------------------------------------------------------------------|
cuando se repita por
segunda vez se termina asi
|---14-|-------12-15-12--------14-17-14-|--14-17p14-15---||17----|-13-13-----------15-15----------|----------------|
|------|--------------------------------|----------------|
|------|--------------------------------|----------------|
|------|--------------------------------|----------------|
|------|--------------------------------|----------------|

pm.......... .............. ........................... ..........|------------------------------------------------------------------------------------------|
|------------------------------------------------------------------------------------------|
|------------------------------------------------------------------------------------------|
|--7-9---------------7-9-----------------5-7--------------------------------5-------------7||--5-7--7-7-7-7-7-7--5-7--7-7-7-7-7-7-7--3-5--5-5-5-5-5-5-5--3-3-3-3-3-3-3--3--5-5-5-5-5--5|
|------------------------------------------------------------------------------------------|

verse
|----------------------------------------|
|----------------------------------------|
|----------------------------------------|
|-9----7-9----5-7----------5-----------7-|
|-7----5-7----3-5--3-3-3-3-3--5-5-5-5--5-||----------------------------------------|

violin
|-------12-15-12--------14-17p14-15---|
|-13-13-----------15-15---------------|
|-------------------------------------|
|-------------------------------------|
|-------------------------------------|
|-------------------------------------|

pm.......... .............. ........................... ..........|------------------------------------------------------------------------------------------|
|------------------------------------------------------------------------------------------|
|------------------------------------------------------------------------------------------|
|--7-9---------------7-9-----------------5-7--------------------------------5-------------7||--5-7--7-7-7-7-7-7--5-7--7-7-7-7-7-7-7--3-5--5-5-5-5-5-5-5--3-3-3-3-3-3-3--3--5-5-5-5-5--5|
|------------------------------------------------------------------------------------------|

|-----------------|
|-----------------|
|-----------------|
|-9--(9)----------|
|-7--(7)----------|
|-----------------|

a veces siento el despertar......
E D C|-0-0-----0-0-0--0-0-0--2---2-2-2-2-2-2------------|
|-0-0-0-0-0-0-0--0-0-0--3-3-3-3-3-3-3-3-0--1-1-1-1-|
|-0-0-0-0-0-0-0--0-0-0--2-2-2-2-2-2-2-2-0--0-0-0-0-|
|-2-2-2-2-2-2-2--2-2-2--0-0---0-0-0-0---0--2-2-2-2-|
|-2-2-2-2-2-2-2--2-2-2--0-----------0---0--3-3-3-3-|
|-0-0-0-0-0-0-0--0-0-0-----------------------------|

el sueño es la realidad....
G D C | esto si kieren no lo token...
tracking img