Tablaturas de perros amores control machete

Solo disponible en BuenasTareas
  • Páginas : 2 (341 palabras )
  • Descarga(s) : 0
  • Publicado : 25 de febrero de 2012
Leer documento completo
Vista previa del texto
Learn to play "De Perros Amores" with online video lessons
------------------------------------|
------------------------------------|--------------5--3--0--3--2--5--3---|x3(intro)
---5---3--5--3-----3--3--3--3-------|
--3---------3-----3--3--3--3--------|-3---3---3--------------------------|

------------------------------------|
------------------------------------|
--------------5--3--0--3--2--5--3---| x5---5---3--5--3-----3--3--3--3-------|
--3---------3-----3--3--3--3--------|
-3---3---3--------------------------|Cuantas (Si alguna vez)
---------|
---------|
---------|
--5----3-| repeated threw out the small verse
---3-3---|-3-------|

Continua repetitiva que constantemente termina
-------------------------------------|-------------------------------------|
--------------5--3--0--3--2--5--3----| Is played till next pre-chorus
---5---3--5--3-----3--3--3--3--------|--3---------3-----3--3--3--3---------|
-3---3---3---------------------------|

Cuantas (Si alguna vez)
---------|
---------|---------|
--5----3-| chorus A
---3-3---|
-3-------|

-------------------------------------|-------------------------------------|
--------------5--3--0--3--2--5--3----| Is played till next pre-chorus
---5---3--5--3-----3--3--3--3--------|...
tracking img