Tablaturas de smoke on the water / deep purple

Solo disponible en BuenasTareas
  • Páginas : 2 (278 palabras )
  • Descarga(s) : 0
  • Publicado : 6 de marzo de 2012
Leer documento completo
Vista previa del texto
Smoke on the water


Smoke on the water/ Deep Purple

(Q):quintas (s):slide
(son acordes)
(al principio todas sonquintas)
-----------------------------------
-----------------------------------
-----3--5-------3--6-(s)<---5------
-5--3--5----5--3----6(s)-<-5-------
-5---------5----------------------------------------------------------

(aqui es puro rasgueo)
-3-------------------------------
-3-------------------------------
------------------------------------------------------------------
---------------------------------
-3-------------------------------

3---------------------------------
3---------------------------------3-----5----------------------------
3-----5----------------------------
3---------------------------------
3---------------------------------

1---------------------------------1---------------------------------
1---3------------------------------
1---3------------------------------
1---------------------------------
1---------------------------------Intro: Riff principal=6x

Verso 1:
Am
We all came out to Montreux
CD Am
on the lake Geneva shoreline

To make records with a mobile -
C D Am
wedidn't have much time



Frank Zappa & the Mothers
C D Am
were atthe best place around

But some stupid with a flare gun
C D Am
burned the place to the ground....
tracking img