Tablaturas you are my love

Solo disponible en BuenasTareas
  • Páginas : 4 (760 palabras )
  • Descarga(s) : 0
  • Publicado : 3 de septiembre de 2012
Leer documento completo
Vista previa del texto
You Are My Love

Drop D tuning
Acoustic Guitar (Capo 3)

E E E E HE E E E Q E E Q. E E. E. E
E||-----------------------|-------------------1--0--|---------0--1---3---1--|B||-----------------------|-------------------------|--3--------------------|
G||-----------------------|-------------------------|--2--------------------|
D||--------0--2--3--------|--------0--2--3----------|--3--------------------|A||-----0-----------------|-----0-------------------|-----------------------|
D||--0--------------------|--0----------------------|--0--------------------|


E E E E Q E E Q E E E S E. S S E E E E QE E
--0----------------------|--------------------------|-------------------------|
-----1--1----------3--1--|----------1--3--3---------|-------------------------|--2----------------------|--3----3-----3----5---3-5-|-----5-------------3--2--|
--2----------------------|--0----------3------------|--3-----3--5--7----------|--0--------0--3----------|--1----------3------------|--3--3-------------------|
-------------------------|--------------------------|--3----------------------|


Q. E E. E. E E Q. E. E. E E E E E H-----------------------|-----------------------|-----------------------|
-----------------------|-----------------------|-----------------------|--0------2--3---2---0--|--2--2----------0---2--|-----2-----------------|
--0-------------0------|--5---------3----------|--------0--2--3--------|
--------------------1--|--0---------4----------|-----0-----------------|--5---------5----------|-----------------------|--0--------------------|


NH
E E E E Q E E E E E E E. E. E E E E E Q E E...
tracking img