Tablaturas

Solo disponible en BuenasTareas
  • Páginas : 11 (2661 palabras )
  • Descarga(s) : 0
  • Publicado : 9 de septiembre de 2012
Leer documento completo
Vista previa del texto
INTRO:BAJO O GUITARRA 1
E|------------------------------------------------------|
B|------------------------------------------------------|
G|------------------------------------------------------|
D|-0-0-0-4-0-0---------4-0-0-------4-0-0-------7-0-4-0--| X2
A|---------------0-0-0--------------------0-0-0---------|
E|----------------------------3-3-3---------------------|E|------------------------------------------------------|
B|------------------------------------------------------|
G|------------------------------------------------------|
D|-0-0-0-4-0-0---------4-0-0-------4-0-0----------------| X1
A|---------------0-0-0--------------------0-0-----------|
E|----------------------------3-3-3---------------------|

INTRO:GUITARRA 2E|------------------------------------------------------|
B|------------------------------------------------------|
G|------------------------------------------------------|
D|-7---7---7---7---7---7---7---7---7---7---7---7--7-----|
A|---5---5---5---5---5---5---5---5---5---5---5---5--5---|
E|------------------------------------------------------|

E|-------------10---------------------------------------|B|------------------------8------10---------------------|
G|------------------------------------------------------|
D|-0----------------------------------------------------|
A|------------------------------------------------------|
E|------------------------------------------------------|

E|-------------------|
B|-------------------|
G|-------------------|
D|--9------9--7------|
A|--9------9--7------|E|--7------7--5------|

GUITARRA 1
E|-------------------------------------------------------|
B|-------------------------------------------------------|
G|--77777777---------------------------------------------|
D|--77777777---77777777---5555555---9999-7777------------|
A|--55555555---77777777---5555555---9999-7777------------|
E|-------------55555555---3333333---7777-5555------------|E|-------------------------------------------------------|
B|-------------------------------------------------------|
G|--77777777---------------------------------------------|
D|--77777777---77777777---5555555------------------------|
A|--55555555---77777777---5555555------------------------|
E|-------------55555555---3333333------------------------|

E|-------------------|B|-------------------|
G|-------------------|
D|--9------9--7------|
A|--9------9--7------|
E|--7------7--5------|

GUITARRA 2
E|-------------------------------------------------------|
B|-------------------------------------------------------|
G|-------------------------------------------------------|
D|-------------------------------------------------------|A|-5-4-5-4-5--4-5/7-X3---7-10-9-7-10-9-7-10-9------------|
E|-------------------------------------------------------|

E|------------|
B|------------|
G|--7---------|
D|--x---------|
A|--5---------|
E|------------|

VERSO: PURO BAJEO

me como las uñas todo por tu culpa a caso no sabes que mi alma es tuya maldita la hora
que te vi a los ojos los veo y no creo que todo es un sueño uhooo uhooo no

uhooo uhooo no
POSTCORO
E|------------------------|
B|------------------------|
G|------------------------|
D|--5---5-5-5--7---7-7-7--|
A|--5---5-5-5--7---7-7-7--|
E|--3---3-3-3--5---5-5-5--|

dime otra vez que me quieres y que no te iras dime otra vez que eres mia y de nadie mas
CORO
E|-------------------------------------------------------|
B|-------------------------------------------------------|G|--77777777---------------------------------------------|
D|--77777777---77777777---5555555---9999-7777------------|X2
A|--55555555---77777777---5555555---9999-7777------------|
E|-------------55555555---3333333---7777-5555------------|

DESPUES DEL CORO

GUITARRA 1
E|-------------------------------------------------------|
B|-------------------------------------------------------|...
tracking img